Oops, an error
Loading. Please wait.
We have an official Basket Case tab made by UG professional guitarists. Check out the tab »
×
45,718 views 51 this week
6 commentsread comments
1 2 3 4 5
x 8
add to favorites
launch autoscroll
font size
0
reset
guitar tuner
backing track
0:00
0:00
×
Best way to learn
"Basket Case"
Autoscroll
slow
fast
+/-
esc
set tempo
stop
Author
Green day – basket case

 (00:36)                                               (00:45)
G|-----------------------------------       -----8h10p8----|
D|-----------------------------------       ---------------|
A|-77--------------------------7----- PAUSE ---------------|
E|----99-444444-5555--777777---------       ---------------|

 (00:48)
G|---------------------------------------------------------|
D|---------------------------------------------------------|
A|-7777------------11--------------777777------------------|
E|------777777--999---444444--5555---------777777-7-77-777-|

G|---------------------------------------------------------|
D|---------------------------------------------------------|
A|-7777------------11--------------777777------------------|
E|------777777--999---444444--5555---------777777-7-77-777-|

 (1:10)
G|---------------------------------------------|
D|-----------------------------------9-7-------|
A|--------------------7-7-77-7-7777-------9-7--|
E|--5-5-55--7-77-777---------------------------|

G|-------------------------------------------------------------|
D|--------------------------------7h8—7h8----------------------|
A|------------------7-7-77-7-7777------------------------------|
E|-5-5-55--7-77-777-----------------------5-5-55--7-77-777-----|

G|-----------------------------------------|
D|-----------------------------------------|
A|--7-7------------------------------------|
E|------9-9--4-44-444--5-5-55--7-77-777----|

 (1:29)
G|-------------------------------------------------------|
D|-------------------------------------------------------|
A|--7---------------------5h7---------------------5h7----|
E|-----7-7--9-9--4-4--2\5------7-7--9-9--4-4--2\5--------|

G|-----------------------------------------------------------|
D|-----------------------------------------------------9h10--|
A|-7-------------5h7-----------------------------------------|
E|--77-99-44-2\5-----77--99--444--55555555--7--PAUSE--7------|

 (1:46)
G|---------------------------------------------------------|
D|---------------------------------------------------------|
A|-7777-----------11-------------7-77-777------------------|
E|-----777777--999---444444-5555-----------777777-7-77-777-|

G|---------------------------------------------------------|
D|---------------------------------------------------------|
A|-7777-----------11-------------7-77-777------------------|
E|-----777777--999---444444-5555-----------777777-7-77-777-|

 (2:07)
G|---------------------------------------------|
D|-----------------------------------9-7-------|
A|--------------------7-7-77-7-7777-------9-7--|
E|--5-5-55--7-77-777---------------------------|

G|-------------------------------------------------------------|
D|---------------------------------7h8—7h8---------------------|
A|-------------------7-7-77-7-7777-----------------------------|
E|--5-5-55--7-77-777-----------------------5-5-55--7-77-777----|


G|-----------------------------------------|
D|-----------------------------------------|
A|--7-7------------------------------------|
E|------9-9--4-44-444--5-5-55--7-77-777----|

  (2:26)                           x4   4th
G|-----------------------------------   -------------------|
D|-----------------------------------   -------------------|
A|-7777----------77------------------   -7777----------7---|
E|------777777-55----7-777777--------   -----777777--5---7-|

 (2:47)
G|------------|
D|------------|
A|--------7---|
E|--7--5------|

END.

************************************

| h  Hammer-on
| p  Pull-off
| \  Slide down

************************************
Suggest correction
comments
print report bad tab
6 comments total. Showing first comments.
0 reply
greenboy 0 Mar 29, 2002 07:00 PM

great tab i think you pretty much got it all good in this one chars

0 reply
Mattius07071988 195 Apr 10, 2002 08:00 PM

I like the tab mate but wot sort of retard sits down to tab a song, and listens for the exact timing??? Tabbin the song is ok, but Why the hell u got the exact seconds to switch from 1 bit to the next,I dunno

0 reply
breakstuf15 0 Jun 07, 2002 08:00 PM

hahahahahahahaha!

guest
You may want to rate the tab now too:
select rating
Wanna post a correction for this tab? Suggest correction