Oops, an error
Loading. Please wait.

Basket Case Bass Tab

version 2
174,586 views 372 this week
32 commentsread comments
1 2 3 4 5
accurate
x 72
add to favorites
launch autoscroll
font size
0
reset
guitar tuner
Autoscroll
slow
fast
+/-
esc
set tempo
stop
Help us to improve Ultimate-Guitar.com Take our survey!
×
This is one of the best tabs i have done enjoy all u bass players out there.

[Verse]

g|----------------------------------------------------------------------------|
d|----------------------------------------------------------------------------|
a|-6-6-6-6-6---------3-3-3-3-3-------------------6-6-6-6-6--------------------|
e|----------6-6-6-6-6---------3-3-3-3-3-4-4-4-4-4---------6-6-6-6-6-6-6-6-6-6-|


[Chorus part 1]

g|----------------------------------------|
d|----------------------------------------|
a|--------------------6-6-6-6-6-6-6-6-6-6-|
e|-4-4-4-4-4-6-6-6-6-6--------------------|


[Chorus part 2]

Play part 2 on the third time through the first part cut off the 6's on the [a| string
and play this instead.
g|--------------------------------------|
d|--------------------------------------|
a|-6-6-4-4-3-3-3-3-3--------------------|
e|------------------4-4-4-4-4-6-6-6-6-6-|


[Guitar solo]
(no bass)

g|------------------|
d|------------------|
a|-6-6-1-1-3-3-1-1--|
e|------------------|


[Verse]
(now go back to the verse and play twice through again)


[Chorus]


[Bridge]

g|-----------------------------------------|
d|-----------------------------------------|
a|-----------------------------------------|
e|-4-4-4-4-4-4-4-4-4-4-6-6-6-6-6-6-6-6-6-6-|


[Outro]

g|-----------------|
d|-----------------|
a|----6-6----------|
e|-4-4---6-6-6-6-6-|

listen to basket case and pick up the rythem. happy playin.
Suggest correction
comments
print report bad tab
32 comments total. Showing first comments.
+1 reply
BasketCase87 80 wrote on April 30 2003, 12:00 am

there's no bass in the first verse
this should be tuned 1/2 a step down

-1 reply
Tijmen 50 wrote on December 14 2003, 12:00 am

No, it shouldnt the tuning is fine, also, I think this tab is perfect.

-1 reply
Maddg973 10 wrote on March 6 2004, 12:00 am

this tabs the best available, and for u basketcase u dont need to use a low Eb u can put an octive up and thats actually whats used.... listen to how it steps...
its not perfact and u have to fill in your own transfers but its the best

guest
You may want to rate the tab now too:
select rating
Wanna post a correction for this tab? Suggest correction