Oops, an error
Loading. Please wait.

Basket Case Tab

version 3
version 3

Video

74,673 views 120 this week
16 commentsread comments
1 2 3 4 5
x 36
add to favorites
launch autoscroll
font size
0
reset
how to read this tab
guitar tuner
Autoscroll
slow
fast
+/-
esc
set tempo
stop
Help us to improve Ultimate-Guitar.com Take our survey!
×
        Standard tuning

        [Intro/Verse]
        "do you have the time........"
        e|-------------------------|
        B|-------------------------|
        G|---8---------------8-----|    Play X2
        D|---8--8--10--5--6--8--8--|    
        A|---6--8--10--5--6--6--8--|
        E|------6--8---3--4-----6--|

        [Chorus]
        "sometimes my mind plays tricks on me......"
        e|----------------------|------------------------|------------------|
        B|----------------------|------------------------|------------PLAY--|   
        G|---------8----PLAY X3-|--------8--10--5--------|--8----------X2---|
        D|---6--8--8------------|--6--8--8--10--5--6--8--|--8--8--10--------|
        A|---6--8--6------------|--6--8--6--8---3--6--8--|--6--8--10--------|
        E|---4--6---------------|--4--6------------4--6--|-----6--8---------|

        REPEAT ALL X1
        e|----------------------|
        B|----------------------| play this X4 on the 2nd chorus
        G|-----8----------------| instead of X2
        D|-----8--8--10--8------|
        A|-----6--8--10--8------|
        E|--------6--8---6------|

        "grasping to control.........."
        e|--------|
        B|--------| 
        G|--------|     
        D|--6--8--|
        A|--6--8--|
        E|--4--6--|

                PLAY VERSE       
                PLAY CHORUS
        [Outro]
        e|---------------------|
        B|---------------------| 
        G|---8---------8-------| Play X
        D|---8--10--6--8--8----|
        A|---6--10--6--6--8----|
        E|------8---4-----6----|

        Finish on
        [Outro]
        e|------------------|
        B|------------------| 
        G|----------8-------| Play X7(i think)
        D|-------6--8--8----|
        A|-------6--6--8----|
        E|-------4-----6----|

[Lyrics]
        Do you have the time to listen to me whine?,
        about nothing and everything all at once
        i am one of those melodramatic fools 
        neurotic to the bone no doubt about it
        
        sometimes i give myself the creeps
        sometimes my mind plays tricks on me
        it all keeps adding up 
        i think im cracking up
        am i just paranoid?, im just stoned
                
        i went to a shrink to anylise my dreams
        she said its lack of sex thats bringing me down
        i went to a whore he said my lifes a bore
        and quit my whining cos its bringing her down

        sometimes i give myself the creeps
        sometimes my mind plays tricks on me
        it all keeps adding up 
        i think im cracking up
        am i just paranoid? well i dont know

        grasping to control, so i better hold on
        
        sometimes i give myself the creeps
        sometimes my mind plays tricks on me
        it all keeps adding up 
        i think im cracking up
        am i just paranoid? well i dont know
Suggest correction
comments
print report bad tab
16 comments total. Showing first comments.
-1 reply
Nycsfinezt61189 10 Aug 06, 2003 12:00 AM

Finally a good tab. Thankyou. All other idiots are starting on E. It supposed to be D Sharp like u have it. Thankyou. Finally a good guitarist.

-2 reply
guitar_freak333 40 Jan 09, 2004 12:00 AM

terrible

+1 reply
offspring_punk 316 Apr 06, 2004 12:00 AM

Or you could leave it on standard tuning and maybe play the chords half a step down. Did you ever think of it that way? Nice job dude and I'm sorry the dumbass who posted before me is sorry

guest
You may want to rate the tab now too:
select rating
Wanna post a correction for this tab? Suggest correction