Oops, an error
Loading. Please wait.

Basket Case Tab

version 6
44,961 views 9 this week
6 commentsread comments
1 2 3 4 5
worth learning
x 15
add to favorites
launch autoscroll
font size
0
reset
how to read this tab
guitar tuner
Tab Pro tools
  • play this tab
  • loop segment
  • change instrument
  • show fretboard
  • metronome
×
Best way to learn
"Basket Case"
Autoscroll
slow
fast
+/-
esc
set tempo
stop
Contributor
Green Day ( Dookie ) - Basket Case

I guess this is a good way of playing this song. And put a rhytm on it with the chords.

RIFF # 1

E----------------------------------------------E
B----------------------------------------------B
G----8------------------------8----------------G
D----8----8----10----5---6----8----8-----------D
A----6----8----10----5---6----6----8-----------A
E---------6-----8----3---4---------6-----------e

RIFF # 2

E----------------------------------------------E
B----------------------------------------------B
G------------------8---------------------------G
D----6------8------8---------------------------D
A----6------8------6---------------------------A
E----4------6----------------------------------e

RIFF # 3

E----------------------------------------------E
B----------------------------------------------B
G------------------8---------------------------G
D----6------8------8-----10--------------------D
A----6------8------6-----10--------------------A
E----4------6-------------8--------------------e

RIFF # 4

E----------------------------------------------E
B----------------------------------------------B
G-----------------------8----------------------G
D----8----6--10----8----8----------------------D
A----8----6--10----8----6----------------------A
E----6----4---8----6---------------------------e


RIFF # 5

E----------------------------------------------E
B----------------------------------------------B
G----------------------------------------------G
D----6----------8------------------------------D
A----6----------8------------------------------A
E----4----------6------------------------------e

RIFF #1
Do you have the time
to listen to me whine
About NOTHING and EVERYTHING all at once
I am one of those
Melodramatic fools
Neurotic to the bone
No doubt about it

RIFF #2
Sometimes I give myself the CREEPS
Sometimes my mind plays tricks on me

RIFF #3
It all keeps adding up
I think I'm CRACKING UP
Am I just PARANOID?
Am I just STONED?
RIFF #4 (4x times)

RIFF #1
I went to a shrink
To analyze my dreams
SHE says it's lack of sex that's
bringing me down
I went to a whore
HE said my life's a bore
So quit my whining cause it's
bringing HER down

RIFF #2
Sometimes I give myself the CREEPS
Sometimes my mind plays tricks on me

RIFF #3
It all keeps adding up
I think I'm CRACKING UP
Am I just PARANOID?
Yeah Yeah Yeah!

RIFF #4 (4x times)

RIFF #5
Grasping to CONTROL
So I BETTER hold on

RIFF #2
Sometimes I give myself the CREEPS
Sometimes my mind plays tricks on me

RIFF #3
It all keeps adding up
I think I'm CRACKING UP
Am I just PARANOID?
Am I just STONED?

That's it. Have fun! :]
comments
print report bad tab
6 comments total. Showing first comments.
-1 reply
noodle666 wrote on March 2 2002, 12:00 am

sorry dude none of this is right

-1 reply
lycrake wrote on March 2 2002, 12:00 am

its powerchords, but not those ones mate

-1 reply
jakethequake91 wrote on November 25 2006, 09:56 pm

it is too those power chords you retard. haven't you ever listened to, or seen Green Day play?

I want to post or [tab]
guest
You may want to rate the tab now too:
select rating
Please do not post tabs as comments. Select "correction" instead!