Oops, an error
Loading. Please wait.
We have an official Basket Case tab made by UG professional guitarists. Check out the tab »
×
109 views 9 this week
1 commentread comment
1 2 3 4 5
2 more votes to show rating
add to favorites
launch autoscroll
font size
0
reset
how to read this tab
guitar tuner
backing track
0:00
0:00
×
Best way to learn
"Basket Case"
Autoscroll
slow
fast
+/-
esc
set tempo
stop
BASKET CASE

(Verse)
e|-----------------|-----------------|-----------------|-----------------|
B|-----------------|-----------------|-----------------|-----------------|
G|--9-X-9--9-9-9---|--4-X-4--4-4-4---|--6-X-6--6-6-6---|-----------------|
D|--9-X-9--9-9-9---|--4-X-4--4-4-4---|--6-X-6--6-6-6---|--6-X-6--6-6-6---|
A|--7-X-7--7-7-7---|--2-X-2--2-2-2---|--4-X-4--4-4-4---|--6-X-6--6-6-6---|
E|-----------------|-----------------|-----------------|--4-X-4--4-4-4---|
    DO YOU HAVE THE   TIME TO           LISTEN TO ME      WHINE

e|-----------------|-----------------|-----------------|-----------------|
B|-----------------|-----------------|-----------------|-----------------|
G|-----------------|-9-X-9--9-9-9----|-----------------|-----------------|
D|--7-X-7--7-7-7---|-9-X-9--9-9-9----|--9-X-9--9-9-9---|--9-X-9--9-9-9---|
A|--7-X-7--7-7-7---|-7-X-7--7-7-7----|--9-X-9--9-9-9---|--9-X-9--9-9-9---|
E|--5-X-5--5-5-5---|-----------------|--7-X-7--7-7-7---|--7-X-7--7-7-7---|
  ABOUT NOTHING AND  EVERYTHING         ALL               AT ONCE

e|-----------------|-----------------|-----------------|-----------------|
B|-----------------|-----------------|-----------------|-----------------|
G|--9-X-9--9-9-9---|-----------------|--6-X-6--6-6-6---|-----------------|
D|--9-X-9--9-9-9---|--9-X-9--9-9-9---|--6-X-6--6-6-6---|--6-X-6--6-6-6---|
A|--7-X-7--7-7-7---|--9-X-9--9-9-9---|--4-X-4--4-4-4---|--6-X-6--6-6-6---|
E|-----------------|--7-X-7--7-7-7---|-----------------|--4-X-4--4-4-4---|
    I’ AM ONE OF      THOSE             MELODRAMATIC      FOOLS

e|-----------------|------------------|--------------------------------------|
B|-----------------|------------------|--------------------------------------|
G|-----------------|--9-X-9--9-9-9----|--------------------------------------|
D|--7-X-7--7-7-7---|--9-X-9--9-9-9----|--9-9-9-9--9-9-9-9--9-9-9-9--9-9-9-9--|
A|--7-X-7--7-7-7---|--7-X-7--7-7-7----|--9-9-9-9--9-9-9-9--9-9-9-9--9-9-9-9--|
E|--5-X-5--5-5-5---|------------------|--7-7-7-7--7-7-7-7--7-7-7-7--7-7-7-7--|
    NEUROTIC TO THE  BONE NO DOUBT ABOUT IT

(Chorus)
e|--------------------|--------------------|---------------------------------|
B|--------------------|--------------------|---------------------------------|
G|--------------------|--------------------|--9-X-9--9-9-9---9-X-9--9-9-9----|
D|--7-7-7-7--7-7-7-7--|--9-9-9-9-9-9-------|--9-X-9--9-9-9---9-X-9--9-9-9----|
A|--7-7-7-7--7-7-7-7--|--9-9-9-9-9-9-------|--7-X-7--7-7-7---7-X-7--7-7-7----|
E|--5-5-5-5--5-5-5-5--|--7-7-7-7-7-7-------|---------------------------------|
             SOMETIMES   I GIVE MYSELF THE    CREEPS

e|--------------------|--------------------|---------------------------------|
B|--------------------|--------------------|---------------------------------|
G|--------------------|--------------------|--9-X-9--9-9-9---9-X-9--9-9-9----|
D|--7-7-7-7--7-7-7-7--|--9-9-9-9-9-9-------|--9-X-9--9-9-9---9-X-9--9-9-9----|
A|--7-7-7-7--7-7-7-7--|--9-9-9-9-9-9-------|--7-X-7--7-7-7---7-X-7--7-7-7----|
E|--5-5-5-5--5-5-5-5--|--7-7-7-7-7-7-------|---------------------------------|
             SOMETIMES   MY MIND PLAYS TRICKS ON ME

e|--------------------|--------------------------|
B|--------------------|--------------------------|
G|--------------------|--------------------------|
D|--7-7-7-7--7-7-7-7--|--9-9-9-9--9-9-9-9--------|
A|--7-7-7-7--7-7-7-7--|--9-9-9-9--9-9-9-9--------|
E|--5-5-5-5--5-5-5-5--|--7-7-7-7--7-7-7-7--------|
    IT ALL KEEPS ADDING  UP I

e|--------------------------------|------------------------------|
B|--------------------------------|------------------------------|
G|--9---7-7--6-6-6-6--6-6-6-6-----|------------------------------|
D|--9---7-7--6-6-6-6--6-6-6-6-----|--7-7-7-7-7-7---9-9-9-9-9-9---|
A|--7---5-5--4-4-4-4--4-4-4-4-----|--7-7-7-7-7-7---9-9-9-9-9-9---|
E|--------------------------------|--5-5-5-5-5-5---7-7-7-7-7-7---|
    THINK I’M CRACKING UP            AM I JUST PARANOID OR AM I JUST

(Interlude)
e|--------------------------------|-----------------------------------|
B|--------------------------------|-----------------------------------|
G|--9--X--4-4--X--6-6--X--4-4-----|--9--X--4-4--X--6-6--X--4-4--------|
D|--9--X--4-4--X--6-6--X--4-4-----|--9--X--4-4--X--6-6--X--4-4--------|
A|--7--X--2-2--X--4-4--X--2-2-----|--7--X--2-2--X--4-4--X--2-2--------|
E|--------------------------------|-----------------------------------|
    STONED

(Verse)
e|-------------------------------------------------------------|
B|-------------------------------------------------------------|
G|--1-1-1-1-1---4-4-4-4-4-4--6-6-6-6-6-------------------------|
D|--2-2-2-2-2---4-4-4-4-4-4--6-6-6-6-6-----6-6-6-6-6-6---------|
A|--2-2-2-2-2---2-2-2-2-2-2--4-4-4-4-4-----6-6-6-6-6-6---------|
E|-----------------------------------------4-4-4-4-4-4---------|
    I WENT TO A SHRINK       TO ANALYZE MY DREAMS    SHE
                           
e|-------------------------------------------------------------|
B|-------------------------------------------------------------|
G|--2-2-2-2-2----1-1-1-1-1-1---4-4--4-4-4--4-4-4-4-4-4---------|
D|--2-2-2-2-2----2-2-2-2-2-2---4-4--4-4-4--4-4-4-4-4-4---------|
A|--0-0-0-0-0----2-2-2-2-2-2---2-2--2-2-2--2-2-2-2-2-2---------|
E|-------------------------------------------------------------|
    SAYS IT’S    SEX THAT’S    ME DOWN
    LACK OF      BRINGING 

e|-------------------------------------------------------------|
B|-------------------------------------------------------------|
G|--1-1-1-1-1---4-4-4-4-4-4---6-6-6-6-6------------------------|
D|--2-2-2-2-2---4-4-4-4-4-4---6-6-6-6-6---6-6-6-6-6-6----------|
A|--2-2-2-2-2---2-2-2-2-2-2---4-4-4-4-4---6-6-6-6-6-6----------|
E|----------------------------------------4-4-4-4-4-4----------|
    I WENT TO A WHORE HE     SAID MY      BORE   
                            LIFE’S A 

e|-------------------------------------------------------------|
B|-------------------------------------------------------------|
G|--2-2-2-2-2--1-1-1-1-1-1--4-4--4-4-4--4-4-4-4-4-4------------|
D|--2-2-2-2-2--2-2-2-2-2-2--4-4--4-4-4--4-4-4-4-4-4------------|
A|--0-0-0-0-0--2-2-2-2-2-2--2-2--2-2-2--2-2-2-2-2-2------------|
E|-------------------------------------------------------------|
    SO QUIT MY CAUSE IT’S   HER DOWN
    WHINING    BRINGING 

(Chorus)
e|-------------------------------------------------------------|
B|-------------------------------------------------------------|
G|------------------------------9-9-9-9-9--9-9-9-9-9-9---------|
D|--7-7-7-7-7---9-9-9-9-9-9-----9-9-9-9-9--9-9-9-9-9-9---------|
A|--7-7-7-7-7---9-9-9-9-9-9-----7-7-7-7-7--7-7-7-7-7-7---------|
E|--5-5-5-5-5---7-7-7-7-7-7------------------------------------|
    SOMETIMES I GIVE MYSELF THE CREEPS

e|-------------------------------------------------------------|
B|-------------------------------------------------------------|
G|-----------------------------------9-9-9-9-9--9-9-9-9-9-9----|
D|--7-7-7-7-7----9-9-9-9-9-9---------9-9-9-9-9--9-9-9-9-9-9----|
A|--7-7-7-7-7----9-9-9-9-9-9---------7-7-7-7-7--7-7-7-7-7-7----|
E|--5-5-5-5-5----7-7-7-7-7-7-----------------------------------|
    SOMETIMES MY MIND PLAYS TRICKS ON ME

e|--------------------|--------------------------|
B|--------------------|--------------------------|
G|--------------------|--------------------------|
D|--7-7-7-7--7-7-7-7--|--9-9-9-9--9-9-9-9--------|
A|--7-7-7-7--7-7-7-7--|--9-9-9-9--9-9-9-9--------|
E|--5-5-5-5--5-5-5-5--|--7-7-7-7--7-7-7-7--------|
    IT ALL KEEPS ADDING  UP I

e|--------------------------------|-----------------------------------|
B|--------------------------------|-----------------------------------|
G|--9---7-7--6-6-6-6--6-6-6-6-----|-----------------------------------|
D|--9---7-7--6-6-6-6--6-6-6-6-----|--7-7-7-7-7-7---9-9-9-9-9-9--------|
A|--7---5-5--4-4-4-4--4-4-4-4-----|--7-7-7-7-7-7---9-9-9-9-9-9--------|
E|--------------------------------|--5-5-5-5-5-5---7-7-7-7-7-7--------|
    THINK I’M CRACKING UP            AM I JUST PARANOID OR AM I JUST

(Interlude)
e|--------------------------------|-----------------------------------|
B|--------------------------------|-----------------------------------|
G|--9--X--4-4--X--6-6--X--4-4-----|--9--X--4-4--X--6-6--X--4-4--------|
D|--9--X--4-4--X--6-6--X--4-4-----|--9--X--4-4--X--6-6--X--4-4--------|
A|--7--X--2-2--X--4-4--X--2-2-----|--7--X--2-2--X--4-4--X--2-2--------|
E|--------------------------------|-----------------------------------|
   STONED

e|--------------------------------|-----------------------------------|
B|--------------------------------|-----------------------------------|
G|--9--X--4-4--X--6-6--X--4-4-----|--9--X--4-4--X--6-6--X--4-4--------|
D|--9--X--4-4--X--6-6--X--4-4-----|--9--X--4-4--X--6-6--X--4-4--------|
A|--7--X--2-2--X--4-4--X--2-2-----|--7--X--2-2--X--4-4--X--2-2--------|
E|--------------------------------|-----------------------------------|

(Bridge)
e|-------------------------------------------------------------|
B|-------------------------------------------------------------|
G|-------------------------------------------------------------|
D|--7-7-7-7--7-7-7-7--7-7-7-7--7-7-7-7----9-9-9-9-9-9-9-9------|
A|--7-7-7-7--7-7-7-7--7-7-7-7--7-7-7-7----9-9-9-9-9-9-9-9------|
E|--5-5-5-5--5-5-5-5--5-5-5-5--5-5-5-5----7-7-7-7-7-7-7-7------|
    GRASPING TO                           CONTROL   SO I BETTER

e|-------------------------------------------------------------|
B|-------------------------------------------------------------|
G|--1-1-1-1-1---4-4-4-4-4-4--6-6-6-6-6-------------------------|
D|--2-2-2-2-2---4-4-4-4-4-4--6-6-6-6-6-----6-6-6-6-6-6---------|
A|--2-2-2-2-2---2-2-2-2-2-2--4-4-4-4-4-----6-6-6-6-6-6---------|
E|-----------------------------------------4-4-4-4-4-4---------|
    HOLD        ON

(Instrumental)
e|-------------------------------------------------------------|
B|-------------------------------------------------------------|
G|--2-2-2-2-2----1-1-1-1-1-1---4-4--4-4-4--4-4-4-4-4-4---------|
D|--2-2-2-2-2----2-2-2-2-2-2---4-4--4-4-4--4-4-4-4-4-4---------|
A|--0-0-0-0-0----2-2-2-2-2-2---2-2--2-2-2--2-2-2-2-2-2---------|
E|-------------------------------------------------------------|

e|-------------------------------------------------------------|
B|-------------------------------------------------------------|
G|--1-1-1-1-1---4-4-4-4-4-4--6-6-6-6-6-------------------------|
D|--2-2-2-2-2---4-4-4-4-4-4--6-6-6-6-6-----6-6-6-6-6-6---------|
A|--2-2-2-2-2---2-2-2-2-2-2--4-4-4-4-4-----6-6-6-6-6-6---------|
E|-----------------------------------------4-4-4-4-4-4---------|

e|-------------------------------------------------------------|
B|-------------------------------------------------------------|
G|--2-2-2-2-2----1-1-1-1-1-1---4-4--4-4-4--4-4-4-4-4-4---------|
D|--2-2-2-2-2----2-2-2-2-2-2---4-4--4-4-4--4-4-4-4-4-4---------|
A|--0-0-0-0-0----2-2-2-2-2-2---2-2--2-2-2--2-2-2-2-2-2---------|
E|-------------------------------------------------------------|

(Chorus)
e|-------------------------------------------------------------|
B|-------------------------------------------------------------|
G|------------------------------9-9-9-9-9--9-9-9-9-9-9---------|
D|--7-7-7-7-7---9-9-9-9-9-9-----9-9-9-9-9--9-9-9-9-9-9---------|
A|--7-7-7-7-7---9-9-9-9-9-9-----7-7-7-7-7--7-7-7-7-7-7---------|
E|--5-5-5-5-5---7-7-7-7-7-7------------------------------------|
    SOMETIMES I GIVE MYSELF THE CREEPS

e|-------------------------------------------------------------|
B|-------------------------------------------------------------|
G|-----------------------------------9-9-9-9-9--9-9-9-9-9-9----|
D|--7-7-7-7-7----9-9-9-9-9-9---------9-9-9-9-9--9-9-9-9-9-9----|
A|--7-7-7-7-7----9-9-9-9-9-9---------7-7-7-7-7--7-7-7-7-7-7----|
E|--5-5-5-5-5----7-7-7-7-7-7-----------------------------------|
   SOMETIMES MY MIND PLAYS TRICKS ON ME

e|--------------------|--------------------------|
B|--------------------|--------------------------|
G|--------------------|--------------------------|
D|--7-7-7-7--7-7-7-7--|--9-9-9-9--9-9-9-9--------|
A|--7-7-7-7--7-7-7-7--|--9-9-9-9--9-9-9-9--------|
E|--5-5-5-5--5-5-5-5--|--7-7-7-7--7-7-7-7--------|
    IT ALL KEEPS ADDING  UP I

e|--------------------------------|---------------------------------|
B|--------------------------------|---------------------------------|
G|--9---7-7--6-6-6-6--6-6-6-6-----|---------------------------------|
D|--9---7-7--6-6-6-6--6-6-6-6-----|--7-7-7-7-7-7---9-9-9-9-9-9------|
A|--7---5-5--4-4-4-4--4-4-4-4-----|--7-7-7-7-7-7---9-9-9-9-9-9------|
E|--------------------------------|--5-5-5-5-5-5---7-7-7-7-7-7------|
    THINK I’M CRACKING UP            AM I JUST PARANOID OR AM I JUST

(Outro)
e|-----------------------------------------------------------|
B|-----------------------------------------------------------|
G|--9-9-9-9-9--6-6-6-6-6-6---------9-9-9---------------------|
D|--9-9-9-9-9--6-6-6-6-6-6--7-7-7--9-9-9--9-9-9-9-9-9--------|
A|--7-7-7-7-7--4-4-4-4-4-4--7-7-7--7-7-7--9-9-9-9-9-9--------|
E|--------------------------5-5-5---------7-7-7-7-7-7--------|
    STONED

e|-----------------------------------------------------------|
B|-----------------------------------------------------------|
G|--9-9-9-9-9--6-6-6-6-6-6---------9-9-9---------------------|
D|--9-9-9-9-9--6-6-6-6-6-6--7-7-7--9-9-9--9-9-9-9-9-9--------|
A|--7-7-7-7-7--4-4-4-4-4-4--7-7-7--7-7-7--9-9-9-9-9-9--------|
E|--------------------------5-5-5---------7-7-7-7-7-7--------|

e|-----------------------------------------------------------|
B|-----------------------------------------------------------|
G|--9-9-9-9-9--6-6-6-6-6-6---------9-9-9---------------------|
D|--9-9-9-9-9--6-6-6-6-6-6--7-7-7--9-9-9--9-9-9-9-9-9--------|
A|--7-7-7-7-7--4-4-4-4-4-4--7-7-7--7-7-7--9-9-9-9-9-9--------|
E|--------------------------5-5-5---------7-7-7-7-7-7--------|

e|-----------------------------------------------------------|
B|-----------------------------------------------------------|
G|--9-9-9-9-9--6-6-6-6-6-6------9-----2-----4----------------|
D|--9-9-9-9-9--6-6-6-6-6-6---7--9--9--2--2--4----------------|
A|--7-7-7-7-7--4-4-4-4-4-4---7--7--9--0--2--2----------------|
E|---------------------------5-----7-----0-------------------|
Suggest correction
Give kudos to tab author, rate the tab!
1 2 3 4 5
comments
print report bad tab
1 comment total.
-1 reply
aflanagan12 10 Feb 24, 2017 07:52 AM

He plays power chords which are palm muted in the beginning, not octave chords.

guest
You may want to rate the tab now too:
select rating
Wanna post a correction for this tab? Suggest correction