Oops, an error
Loading. Please wait.

Before The Lobotomy Tab

version 1
version 1

Whole song

156,354 views 105 this week
10 commentsread comments
1 2 3 4 5
x 45
add to favorites
launch autoscroll
font size
0
reset
how to read this tab
guitar tuner
Autoscroll
slow
fast
+/-
esc
set tempo
stop
Help us to improve Ultimate-Guitar.com Take our survey!
×
Author
-------------------------------------------------------------------------------
                        Before the Lobotomy-Green Day
-------------------------------------------------------------------------------
Tabbed by:Stjimmy34
Tuning: Half-step down

[Intro] x5

eb|-----------------------------------------0---------------0-----------------|
Bb|---------3---------------3-------------3---3-----------3---3---------------|
Gb|-------0---0-----------0---0---------2-------2-------2-------2-------------|
Db|-----0-------0-------0-------0-----0-----------0---0-----------0-----------|
Ab|---2-----------2---2-----------2-------------------------------------------|
Eb|-3---------------3---------------2---------------2-------------------------|

                                    Last time, just strum this at the end:
eb|---------0---------------0---------------0-----------------------|---------|
Bb|-------3---3-----------3---3-----------1---1---------4-----4-----|--4------|
Gb|-----2-------2-------2-------2-------0-------0---------0-----0---|--0------|
Db|---0-----------0---0-----------0---2-----------2---5-----------5-|--5------|
Ab|---------------------------------3---------------6-------6-------|--6------|
Eb|-1---------------1-----------------------------------------------|---------|


[Pre-Verse]

eb|---------------------------------------------------------------------------|
Bb|---------------------------------------------------------------------------|
Gb|-7-------------------------------------------------------------------------|
Db|-7-5-7---------------------------------------------------------------------|
Ab|-5-5-7---------------------------------------------------------------------|
Eb|---3-5---------------------------------------------------------------------|


[Verse] x4

eb|---------------------------------------------------------------------------|
Bb|-77-1010-88-77-------------------------------------------------------------|
Gb|-77--9-9-77-77--7----------7-----------------------------------------------|
Db|----------------7-5-7--5-7-7-----------------------------------------------|
Ab|----------------5-5-7--5-7-5-----------------------------------------------|
Eb|------------------3-5--3-5-------------------------------------------------|


[Chorus] x8

eb|---------------------------------------------------------------------------|
Bb|---------------------------------------------------------------------------|
Gb|---7-----------------------------------------------------------------------|
Db|-5-7-7---------------------------------------------------------------------|
Ab|-5-5-7---------------------------------------------------------------------|
Eb|-3---5---------------------------------------------------------------------|


[Verse 2]

Second verse, same as the first, except for the fourth time you play it
you don't play anything during "Whiskey shots and cheap cigarettes" 
eb|-xxxxxx--------------------------------------------------------------------|
Bb|-xxxxxx--------------------------------------------------------------------|
Gb|-xxxxxx--7----------7------------------------------------------------------|
Db|-xxxxxx--7-5-7--5-7-7------------------------------------------------------|
Ab|-xxxxxx--5-5-7--5-7-5------------------------------------------------------|
Eb|-xxxxxx----3-5--3-5--------------------------------------------------------|


[Chorus]
(same again, but the 8th time you end with)

eb|---------------------------------------------------------------------------|
Bb|---------------------------------------------------------------------------|
Gb|---7-----------------------------------------------------------------------|
Db|-5-7-----------------------------------------------------------------------|
Ab|-5-5-77777777777777--------------------------------------------------------|
Eb|-3---55555555555555--------------------------------------------------------|


[Bridge]

eb|-------------------------|-------------------------------------------------------|
Bb|-------------------------|-------------------------------------------------------|
Gb|-7-7-777-----------------|-5-5-555------------8-8-888-----------7777777777777777-|
Db|-7-7-777-7-77-7777--(x4)-|-5-5-555-5-55-5555--8-8-888-8-88-8888-7777777777777777-|
Ab|-5-5-555-7-77-7777-------|-3-3-333-5-55-5555--6-6-666-8-88-8888-5555555555555555-|
Eb|---------5-55-5555-------|---------3-33-3333----------6-66-6666------------------|


[Guitar 1]

eb|-------------------------------10\-----------------------------------------|
Bb|------------7h8-10--9h10-13-10---------------------------------------------|
Gb|-7--7h9-11-----------------------------------------------------------------|
Db|---------------------------------------------------------------------------|
Ab|---------------------------------------------------------------------------|
Eb|---------------------------------------------------------------------------|


[Guitar 2]
(slowly release palm mute)

eb|---------------------------------------------------------------------------|
Bb|---------------------------------------------------------------------------|
Gb|-7777777777777777----------------------------------------------------------|
Db|-7777777777777777----------------------------------------------------------|
Ab|-5555555555555555----------------------------------------------------------|
Eb|---------------------------------------------------------------------------|
    ........


[Outro]

There's a second guitar that plays the intro under this


[Guitar 1] x3

eb|---------------------------------------------------------------------------|
Bb|---------------------------------------------------------------------------|
Gb|----------------------------------------------------5555555-88888888-------|
Db|-5555555555555555-4444444444444444-3333333333333333-5555555-88888888-------|
Ab|-5555555555555555-5555555555555555-3333333333333333-3333333-66666666-------|
Eb|-3333333333333333-2222222222222222-1111111111111111------------------------|

eb|---------------------------------------------------------------------------|
Bb|---------------------------------------------------------------------------|
Gb|---------------------------------------------------------------------------|
Db|-5555555555555555-4444444444444444-3333333333333333------------------------|
Ab|-5555555555555555-5555555555555555-3333333333333333------------------------|
Eb|-3333333333333333-2222222222222222-1111111111111111------------------------|


[Outro]
End with this at "in the underground"
eb|---------------------------------------------------------------------------|
Bb|-5~----4~------------------------------------------------------------------|
Gb|---------------------------------------------------------------------------|
Db|---------------------------------------------------------------------------|
Ab|-3~----3~------------------------------------------------------------------|
Eb|---------------------------------------------------------------------------|

 
************************************

| x  Dead note
| h  Hammer-on
| b  Bend
| \  Slide down
| ~  Vibrato 

************************************
Suggest correction
comments
print report bad tab
10 comments total. Showing first comments. show 1 bad comment
+2 reply
synysterga7x 28 May 20, 2009 03:31 PM

sounds good. pain to drop half step though

0 reply
Tomo J O 30 May 21, 2009 11:36 AM

spot on.

guest
You may want to rate the tab now too:
select rating
Wanna post a correction for this tab? Suggest correction