Oops, an error
Loading. Please wait.

Before The Lobotomy Tab

version 2
version 2

Whole song

4,060 views 12 this week
no commentswrite comment
1 2 3 4 5
worth learning
x 5
add to favorites
launch autoscroll
font size
0
reset
how to read this tab
guitar tuner
Autoscroll
slow
fast
+/-
esc
set tempo
stop
Help us to improve Ultimate-Guitar.com Take our survey!
×
Author
Band : Green Day
Song : Before the Lobotomy
Album : 21st Century Breakdown
Year : 2009
Tabbed by : simonns
Tuning : standard

Normally this tab is one half-step down tuned but I find how to play this song 
with a standard tuning

Chords Used in the intro :
F# :244322
C#sus2 : 446644
C#sus2/E : 046644
B : 76444x
D : x54x3x


Intro :

   F#                             | C#sus2                          | C#sus2/E
e|--------------------------------|---------------------------------|--------||
B|---------2---------------2------|--------4---------------4--------|--------||
G|-------3---3-----------3---3----|------6---6-----------6---6------|------6-||
D|-----4-------4-------4-------4--|----6-------6-------6-------6----|----6---||
A|---4-----------4---4-----------4|--4-----------4---4-----------4--|--4-----||
E|-2---------------2--------------|4---------------4---------------4|0-------||
                                                                              |
   C#sus2/E               | B             | D                                 | x4
e|------------------------|---------------|-----------------|                 |
B|-4---------------4------|--------4------|----3-----3------|                 |
G|---6-----------6---6----|------4---4----|-----------------|                 |
D|-----6-------6-------6--|----4-------4--|--4---4-----4----|                 |
A|-------4---4-----------4|--6-----------6|5-------5-----5--|                 |
E|---------0--------------|7--------------|-----------------|                 |


   F#                             | C#sus2                          | C#sus2/E
e|--------------------------------|---------------------------------|--------|
B|---------2---------------2------|--------4---------------4--------|--------|
G|-------3---3-----------3---3----|------6---6-----------6---6------|------6-|
D|-----4-------4-------4-------4--|----6-------6-------6-------6----|----6---|
A|---4-----------4---4-----------4|--4-----------4---4-----------4--|--4-----|
E|-2---------------2--------------|4---------------4---------------4|0-------|
                                                                              
   C#sus2/E               | B             | D
e|------------------------|---------------|----|
B|-4---------------4------|--------4------|-3--|
G|---6-----------6---6----|------4---4----|----|
D|-----6-------6-------6--|----4-------4--|-4--|
A|-------4---4-----------4|--6-----------6|-5--|
E|---------0--------------|7--------------|----|

Pre-Verse :
e|--------|
B|--------|
G|-6------|
D|-6-4-6--|x12
A|-4-4-6--|
E|---2-4--|

Verse 1 :
e|---------------------------------------|
B|-6-6--9-9--7-7--6-6--------------------|
G|-6-6--8-8--6-6--6-6-----6-----------6--|
D|------------------------6-4-6---4-6-6--| x4
A|------------------------4-4-6---4-6-4--|
E|--------------------------2-4---2-4----|

Chorus :
e|-------|
B|-------|
G|---6---|
D|-4-6-6-|x8
A|-4-4-6-|
E|-2---4-|

Verse 2 :
e|---------------------------------------|
B|-6-6--9-9--7-7--6-6--------------------|
G|-6-6--8-8--6-6--6-6-----6-----------6--|
D|------------------------6-4-6---4-6-6--|x3
A|------------------------4-4-6---4-6-4--|
E|--------------------------2-4---2-4----|

e|-xxxxxx-------------------|
B|-xxxxxx-------------------|
G|-xxxxxx----6-----------6--|
D|-xxxxxx----6-4-6---4-6-6--|
A|-xxxxxx----4-4-6---4-6-4--|
E|-xxxxxx------2-4---2-4----|

Chorus :
e|-------|
B|-------|
G|---6---|
D|-4-6-6-|x7
A|-4-4-6-|
E|-2---4-|

e|----------------------|
B|----------------------|
G|---6------------------|
D|-4-6-6666666666666666-|
A|-4-4-6666666666666666-|
E|-2---4444444444444444-|

Bridge :
e|------------------|---------------------------------------------------------|
B|------------------|---------------------------------------------------------|
G|-6-6-666----------|---4-4-444------------7-7-777-----------6666666666666666-|
D|-6-6-666-6-66-666-|x4-4-4-444-4-44-444---7-7-777-7-77-777--6666666666666666-|
A|-4-4-444-6-66-666-|---2-2-222-4-44-444---5-5-555-7-77-777--4444444444444444-|
E|---------4-44-444-|-----------2-22-222-----------5-55-555-------------------|

Solo :
Guitar 1 :
e|--------------------6-7--9-7--|
B|-------6--6h7-9---9----9------|
G|-6--6h8-----------------------|
D|------------------------------|
A|------------------------------|
E|------------------------------|
Guitar 2 (palm mute) :
e|------------------------------|
B|------------------------------|
G|-6666666666666666666666666666-|
D|-6666666666666666666666666666-|
A|-4444444444444444444444444444-|
E|------------------------------|

Outro :
Guitar 1 :
e|-----------------|----------------|----------------|--------|---------|
B|-----------------|----------------|----------------|--------|---------|
G|-----------------|----------------|----------------|44444444|77777777-|
D|-4444444444444444|3333333333333333|2222222222222222|44444444|77777777-|x3
A|-4444444444444444|4444444444444444|2222222222222222|22222222|55555555-|
E|-2222222222222222|1111111111111111|0000000000000000|--------|---------|

e|-----------------|----------------|----------------|-----------|
B|-----------------|----------------|----------------|-4-------3-|
G|-----------------|----------------|----------------|-----------|
D|-4444444444444444|3333333333333333|2222222222222222|-----------|
A|-4444444444444444|4444444444444444|2222222222222222|-----------|
E|-2222222222222222|1111111111111111|0000000000000000|-----------|

Guitar 2 plays the intro :
   F#                             | C#sus2                          | C#sus2/E
e|--------------------------------|---------------------------------|--------||
B|---------2---------------2------|--------4---------------4--------|--------||
G|-------3---3-----------3---3----|------6---6-----------6---6------|------6-||
D|-----4-------4-------4-------4--|----6-------6-------6-------6----|----6---||
A|---4-----------4---4-----------4|--4-----------4---4-----------4--|--4-----||
E|-2---------------2--------------|4---------------4---------------4|0-------||
                                                                              |
   C#sus2/E               | B             | D                                 | x3
e|------------------------|---------------|-----------------|                 |
B|-4---------------4------|--------4------|----3-----3------|                 |
G|---6-----------6---6----|------4---4----|-----------------|                 |
D|-----6-------6-------6--|----4-------4--|--4---4-----4----|                 |
A|-------4---4-----------4|--6-----------6|5-------5-----5--|                 |
E|---------0--------------|7--------------|-----------------|                 |


   F#                             | C#sus2                          | C#sus2/E
e|--------------------------------|---------------------------------|--------|
B|---------2---------------2------|--------4---------------4--------|--------|
G|-------3---3-----------3---3----|------6---6-----------6---6------|------6-|
D|-----4-------4-------4-------4--|----6-------6-------6-------6----|----6---|
A|---4-----------4---4-----------4|--4-----------4---4-----------4--|--4-----|
E|-2---------------2--------------|4---------------4---------------4|0-------|
                                                                              
   C#sus2/E               | B             | D
e|------------------------|---------------|-----------|
B|-4---------------4------|--------4------|-----------|
G|---6-----------6---6----|------4---4----|-----------|
D|-----6-------6-------6--|----4-------4--|-----------|
A|-------4---4-----------4|--6-----------6|-2-------2-|
E|---------0--------------|7--------------|-----------|

| h hammer-on
| x Mute note
===============================================================================
Suggest correction
What's this?
You can suggest a correction to this tab. Community and Mods will review your correction and vote to approve or reject it.
comments
print report bad tab
guest
You may want to rate the tab now too:
select rating
Please do not post tabs as comments. Select "correction" instead!