Oops, an error
Loading. Please wait.

Blood Sex And Booze Tab

version 4
version 4

Whole song

Interactive

881 views 1 this week
no commentswrite comment
1 2 3 4 5
please rate
add to favorites
launch autoscroll
font size
0
reset
how to read this tab
guitar tuner
Autoscroll
slow
fast
+/-
esc
set tempo
stop
Help us to improve Ultimate-Guitar.com Take our survey!
×
Difficulty
intermediate
Intro (All Palm-Muted):

E-----------------------------------|
B-----------------------------------|
G-----------------------------------|
D-8-9-9-9-9-9-9-9-9-9-9-9-9-9-9-9-9-|
A-8-9-9-9-9-9-9-9-9-9-9-9-9-9-9-9-9-|
E-6-7-7-7-7-7-7-7-7-7-7-7-7-7-7-7-7-|

Verse (All Palm-Muted except for last three 8 power chords- each of which get gradually 
and the three 7 power chrods as a short prechorus which are played at full volume) :

E---------------------------------|
B---------------------------------|
G-9-9-9-9-9-9-9-9-9-9-9-9-9-9-9-9-|
D-9-9-9-9-9-9-9-9-9-9-9-9-9-9-9-9-|
A-7-7-7-7-7-7-7-7-7-7-7-7-7-7-7-7-|
E---------------------------------|

E-------------------------------------------------|
B-------------------------------------------------|
G-------------------------------------------------|
D-10-10-10-10-10-10-10-10-10-10-10-10-10-10-10-10-|
A-10-10-10-10-10-10-10-10-10-10-10-10-10-10-10-10-|
E--8--8--8--8--8--8--8--8--8--8--8--8--8--8--8--8-|

E---------------------------------|
B---------------------------------|
G-9-9-9-9-9-9-9-9-9-9-9-9-9-9-9-9-|
D-9-9-9-9-9-9-9-9-9-9-9-9-9-9-9-9-|
A-7-7-7-7-7-7-7-7-7-7-7-7-7-7-7-7-|
E---------------------------------|

E----------------------------------------------|
B----------------------------------------------|
G----------------------------------------------|
D-10-10-10-10-10-10-10-10-10-10-10-10-10-9-9-9-|
A-10-10-10-10-10-10-10-10-10-10-10-10-10-9-9-9-|
E--8--8--8--8--8--8--8--8--8--8--8--8--8-7-7-7-|

Chorus (Play normally):

E-----------------------------------------------------------------|
B-----------------------------------------------------------------|
G-6-6-6-6-6-6-6-6-6-6-6-6-6-6-6-6-9-9-9-9-9-9-9-9-9-9-9-9-9-9-9-9-|
D-6-6-6-6-6-6-6-6-6-6-6-6-6-6-6-6-9-9-9-9-9-9-9-9-9-9-9-9-9-9-9-9-|
A-4-4-4-4-4-4-4-4-4-4-4-4-4-4-4-4-7-7-7-7-7-7-7-7-7-7-7-7-7-7-7-7-|
E-----------------------------------------------------------------|

E----------------------------------------------------|
B----------------------------------------------------|
G-6-6-6-6-6-6-6-6-6-6-6-6-6-6-6-6--------------------|
D-6-6-6-6-6-6-6-6-6-6-6-6-6-6-6-6-7-7-7-7-7-7-7-7-9/-|
A-4-4-4-4-4-4-4-4-4-4-4-4-4-4-4-4-7-7-7-7-7-7-7-7-9/-|
E---------------------------------5-5-5-5-5-5-5-5-7/-|

"Say I'm disturbed, it's what I deserve..." (All Palm-Muted exept for the last three 4 
chords which gradually get louder, and the for 5 power chords and the one 7 power chord):

E------------------------------------------------------------|
B------------------------------------------------------------|
G-9-9-9-9-9-9-9-9-7-7-7-7-7-7-7-7-6-6-6-6-6-6-6-6------------|
D-9-9-9-9-9-9-9-9-7-7-7-7-7-7-7-7-6-6-6-6-6-6-6-6-7-7-7-7-9--|
A-7-7-7-7-7-7-7-7-5-5-5-5-5-5-5-5-4-4-4-4-4-4-4-4-7-7-7-7-9--|
E-------------------------------------------------5-5-5-5-7--|

Verse (All Palm-Muted except for last three 8 power chords- each of which get gradually 
and the three 7 power chrods as a short prechorus which are played at full volume) :

E---------------------------------|
B---------------------------------|
G-9-9-9-9-9-9-9-9-9-9-9-9-9-9-9-9-|
D-9-9-9-9-9-9-9-9-9-9-9-9-9-9-9-9-|
A-7-7-7-7-7-7-7-7-7-7-7-7-7-7-7-7-|
E---------------------------------|

E---------------------------------|
B---------------------------------|
G-9-9-9-9-9-9-9-9-9-9-9-9-9-9-9-9-|
D-9-9-9-9-9-9-9-9-9-9-9-9-9-9-9-9-|
A-7-7-7-7-7-7-7-7-7-7-7-7-7-7-7-7-|
E---------------------------------|

E-------------------------------------------------|
B-------------------------------------------------|
G-------------------------------------------------|
D-10-10-10-10-10-10-10-10-10-10-10-10-10-10-10-10-|
A-10-10-10-10-10-10-10-10-10-10-10-10-10-10-10-10-|
E--8--8--8--8--8--8--8--8--8--8--8--8--8--8--8--8-|

E---------------------------------|
B---------------------------------|
G-9-9-9-9-9-9-9-9-9-9-9-9-9-9-9-9-|
D-9-9-9-9-9-9-9-9-9-9-9-9-9-9-9-9-|
A-7-7-7-7-7-7-7-7-7-7-7-7-7-7-7-7-|
E---------------------------------|

E----------------------------------------------|
B----------------------------------------------|
G----------------------------------------------|
D-10-10-10-10-10-10-10-10-10-10-10-10-10-9-9-9-|
A-10-10-10-10-10-10-10-10-10-10-10-10-10-9-9-9-|
E--8--8--8--8--8--8--8--8--8--8--8--8--8-7-7-7-|

Chorus (Play normally):

E-----------------------------------------------------------------|
B-----------------------------------------------------------------|
G-6-6-6-6-6-6-6-6-6-6-6-6-6-6-6-6-9-9-9-9-9-9-9-9-9-9-9-9-9-9-9-9-|
D-6-6-6-6-6-6-6-6-6-6-6-6-6-6-6-6-9-9-9-9-9-9-9-9-9-9-9-9-9-9-9-9-|
A-4-4-4-4-4-4-4-4-4-4-4-4-4-4-4-4-7-7-7-7-7-7-7-7-7-7-7-7-7-7-7-7-|
E-----------------------------------------------------------------|

E----------------------------------------------------|
B----------------------------------------------------|
G-6-6-6-6-6-6-6-6-6-6-6-6-6-6-6-6--------------------|
D-6-6-6-6-6-6-6-6-6-6-6-6-6-6-6-6-7-7-7-7-7-7-7-7-9/-|
A-4-4-4-4-4-4-4-4-4-4-4-4-4-4-4-4-7-7-7-7-7-7-7-7-9/-|
E---------------------------------5-5-5-5-5-5-5-5-7/-|

"Say I'm disturbed, it's what I deserve..." (All Palm-Muted exept for the last three 4 
chords which gradually get louder, and the for 5 power chords and the one 7 power chord):

E------------------------------------------------------------|
B------------------------------------------------------------|
G-9-9-9-9-9-9-9-9-7-7-7-7-7-7-7-7-6-6-6-6-6-6-6-6------------|
D-9-9-9-9-9-9-9-9-7-7-7-7-7-7-7-7-6-6-6-6-6-6-6-6-7-7-7-7-9--|
A-7-7-7-7-7-7-7-7-5-5-5-5-5-5-5-5-4-4-4-4-4-4-4-4-7-7-7-7-9--|
E-------------------------------------------------5-5-5-5-7--|

Bridge Intro (Start off palm muted and slowly get louder) :

E---------------------------------|
B---------------------------------|
G-9-9-9-9-9-9-9-9-9-9-9-9-9-9-9-9-|
D-9-9-9-9-9-9-9-9-9-9-9-9-9-9-9-9-|
A-7-7-7-7-7-7-7-7-7-7-7-7-7-7-7-7-|
E---------------------------------|

Bridge (Play normally)

E---------------------------------|
B---------------------------------|
G-9-9-9-9-9-9-9-9-9-9-9-9-9-9-9-9-|
D-9-9-9-9-9-9-9-9-9-9-9-9-9-9-9-9-|
A-7-7-7-7-7-7-7-7-7-7-7-7-7-7-7-7-|
E---------------------------------|

E---------------------------------|
B---------------------------------|
G-5-5-----5-5-----5-5-----5-5-----|
D-5-5-5-5-5-5-5-5-5-5-5-5-5-5-5-5-|
A-3-3-5-5-3-3-5-5-3-3-5-5-3-3-5-5-|
E-----3-3-----3-3-----3-3-----3-3-|

E---------------------------------|
B---------------------------------|
G-9-9-9-9-9-9-9-9-9-9-9-9-9-9-9-9-|
D-9-9-9-9-9-9-9-9-9-9-9-9-9-9-9-9-|
A-7-7-7-7-7-7-7-7-7-7-7-7-7-7-7-7-|
E---------------------------------|

E---------------------------------|
B---------------------------------|
G-5-5-----5-5-----5-5-----5-5-----|
D-5-5-5-5-5-5-5-5-5-5-5-5-5-5-5-5-|
A-3-3-5-5-3-3-5-5-3-3-5-5-3-3-5-5-|
E-----3-3-----3-3-----3-3-----3-3-|

Chorus (Play normally):

E-----------------------------------------------------------------|
B-----------------------------------------------------------------|
G-6-6-6-6-6-6-6-6-6-6-6-6-6-6-6-6-9-9-9-9-9-9-9-9-9-9-9-9-9-9-9-9-|
D-6-6-6-6-6-6-6-6-6-6-6-6-6-6-6-6-9-9-9-9-9-9-9-9-9-9-9-9-9-9-9-9-|
A-4-4-4-4-4-4-4-4-4-4-4-4-4-4-4-4-7-7-7-7-7-7-7-7-7-7-7-7-7-7-7-7-|
E-----------------------------------------------------------------|

E-----------------------------------------------------------------|
B-----------------------------------------------------------------|
G-6-6-6-6-6-6-6-6-6-6-6-6-6-6-6-6---------------------------------|
D-6-6-6-6-6-6-6-6-6-6-6-6-6-6-6-6-7-7-7-7-7-7-7-7-9-9-9-9-9-9-9-9-|
A-4-4-4-4-4-4-4-4-4-4-4-4-4-4-4-4-7-7-7-7-7-7-7-7-9-9-9-9-9-9-9-9-|
E---------------------------------5-5-5-5-5-5-5-5-7-7-7-7-7-7-7-7-|

Bridge (Play normally)

E---------------------------------|
B---------------------------------|
G-9-9-9-9-9-9-9-9-9-9-9-9-9-9-9-9-|
D-9-9-9-9-9-9-9-9-9-9-9-9-9-9-9-9-|
A-7-7-7-7-7-7-7-7-7-7-7-7-7-7-7-7-|
E---------------------------------|

E---------------------------------|
B---------------------------------|
G-5-5-----5-5-----5-5-----5-5-----|
D-5-5-5-5-5-5-5-5-5-5-5-5-5-5-5-5-|
A-3-3-5-5-3-3-5-5-3-3-5-5-3-3-5-5-|
E-----3-3-----3-3-----3-3-----3-3-|

E---------------------------------|
B---------------------------------|
G-9-9-9-9-9-9-9-9-9-9-9-9-9-9-9-9-|
D-9-9-9-9-9-9-9-9-9-9-9-9-9-9-9-9-|
A-7-7-7-7-7-7-7-7-7-7-7-7-7-7-7-7-|
E---------------------------------|

E---------------------------------|
B---------------------------------|
G-5-5-----5-5-----5-5-----5-5-----|
D-5-5-5-5-5-5-5-5-5-5-5-5-5-5-5-5-|
A-3-3-5-5-3-3-5-5-3-3-5-5-3-3-5-5-|
E-----3-3-----3-3-----3-3-----3-3-|

Outro (Play normally):

E-------------------------------------------------------------|
B-------------------------------------------------------------|
G-9-9-9-9-9-9-9-9-7-7-7-7-7-7-7-7-6-6-6-6-6-6-6-6-5-5-5-5-5-4-|
D-9-9-9-9-9-9-9-9-7-7-7-7-7-7-7-7-6-6-6-6-6-6-6-6-5-5-5-5-5-4-|
A-7-7-7-7-7-7-7-7-5-5-5-5-5-5-5-5-4-4-4-4-4-4-4-4-3-3-3-3-3-2-|
E-------------------------------------------------------------|
Suggest correction
Give kudos to tab author, rate the tab!
1 2 3 4 5
comments
print report bad tab
guest
You may want to rate the tab now too:
select rating
Wanna post a correction for this tab? Suggest correction