Oops, an error
Loading. Please wait.

Boulevard Of Broken Dreams Tab

version 2
46,705 views 129 this week
no commentswrite comment
1 2 3 4 5
x 16
add to favorites
launch autoscroll
font size
0
reset
how to read this tab
guitar tuner
Autoscroll
slow
fast
+/-
esc
set tempo
stop
Help us to improve Ultimate-Guitar.com Take our survey!
×
Difficulty
intermediate
Artist: Green Day 
Song: Boulevard Of Broken dreams
Mail: paul.bv96@yahoo.com


E|------------------------0----|------------------------------|
B|------0--1----------------3--|--------0-1-------------------|
G|----2------------------------|------0----------------2------| x2
D|--2--------------2-----------|----0--------------0------0---|
A|0--------------3-------------|------------------------------|
E|-----------------------------|3--------------2--------------|

E|--------------------3--0-----|------------------0-----------|
B|------------0--1-------------|3--1--3-1--3--3--3----1-------|
G|----2--2------0------------0-|0--0--0-0------2--2-----------|
D|----2--2------2----------2---|0--0--0-0--4-------4----------|
A|0--------------3-------------|-----------------5------------|
E|-----------------------------|3-----------------------------|

E|--------------------3--0-----|------------------0-----------|
B|------------0--1-------------|3--1--3--1-3--3----3--1-------|
G|----2--2------0------------0-|0--0--0--0-2--------2--2------|
D|----2--2------2----------2---|0--0--0--0-0--------0--0------|
A|0--------------3-------------|------------------------------|
E|-----------------------------|3--------------2--------------|

E|------------------------0----|------------------------------|
B|--------0--1--------------3--|------0--1--------------------|
G|------2----------------------|----0------------------2------| x2
D|----2--------------2---------|--0----------------0------0---|
A|0--------------3-------------|------------------------------|
E|-----------------------------|3--------------2--------------|


E|--------------------3--0-----|------------------0-----------|
B|------------0--1-------------|3--1--3-1--3--3--3----1-------|
G|----2--2------0------------0-|0--0--0-0------2--2-----------|
D|----2--2------2----------2---|0--0--0-0---4------ 4---------|
A|0--------------3-------------|---------------- 5------------|
E|-----------------------------|3-----------------------------|

E|--------------------3--0-----|------------------0-----------|
B|------------0--1-------------|3--1--3--1-3--3----3--1-------|
G|----2--2------0------------0-|0--0--0--0-2--------2--2------|
D|----2--2------2----------2---|0--0--0--0-0--------0--0------|
A|0--------------3-------------|------------------------------|
E|-----------------------------|3--------------2--------------|

E|------------------------0----|------------------------------|
B|--------0--1--------------3--|--------0--1------------------|
G|2------2--2--------0---------|------------------------2-----|
D|----2--------------2---------|----0--------------0------0---|
A|0--------------3-------------|------------------------------|
E|-----------------------------|3--------------2------------1-|

E|-----5-------3---------------|--------------------0---------|
B|-----1-------1------1------3-|--3--3--1--3----1--3--1-------|
G|-------------0------0--------|----0-0--0--2--------2--------|
D|---------3--------------2----|----0-0--0--2--------2--------|
A|----------------3------------|----------------0-------------|
E|-----------------------------|3-----------------------------|

E|-----5-------3------------------|---------------------0----------|
B|-----1-------1-------1-------3--|---3-----3---1-3-----1---3---1--|
G|-----2-------0-------0-------0--|---0-----0----2---------2---2---|
D|---------3---------------2------|-----0---0----2---------2---2---|
A|-----------------3--------------|-----------------0--------------|
E|-1------------------------------|-3------------------------------|

E|-----5-------3------------------|---------------------0----------|
B|-----1-------1-------1-------3--|---3---3---1---3-----1---3---1--|
G|-----2-------0-------0-------0--|-----0-0---0---2-----2---2---2--|
D|---------3---------------2---0--|-----0---0-0---2---------2---2--|
A|----------------3---------------|-----------------0--------------|
E|-1-----------------------------3|--------------------------------|

E|-----5-------3-------------4----|--------------------------------|
B|-----1-------1-----1---------5--|---5---5------------------------|
G|-----2-------0-----0---------4--|---4---4------------------------|
D|---------3----------------------|---6-----6----------------------|
A|-----------------3--------------|--------------------------------|
E|-1------------------------------|-0-0-----0---0---0--------------|

E|--------------------------------|--------------------------------|
B|-1-------1-------1-------1------|-3---------------3-------3------|
G|-2-------2-------2-------2------|-0-------0-------2-------2------|
D|-2-------2-------3-------3------|-0-------0-------0-------0------|
A|-0---0---0---0------------------|--------------------------------|
E|-----------------1---1---1---1--|-3---3---3---3---2---2---2---2--|

E|--------------------------------|--------------------------------|
B|-1-------1-------1-------1------|-1-------1-------1-------1------|
G|-0-------0-------1-------1------|-2-------2-------2-------2------|
D|-2-------2-------1-------1------|-2-------2-------3-------3------|
A|-3---3---3---3------------------|-0---0---0---0------------------|
E|-----------------4---4---4---4--|-----------------1---1---1---1--|

E|--------------------------------|--------------------------------|
B|-3---------------3-------3------|-1---1---1---1------------------|
G|-0-------0-------2-------2------|-0---0---1---1------------------|
D|-0-------0-------0-------0------|-2---2---1---1------------------|
A|--------------------------------|-3---3--------------------------|
E|-3---3---3---3---2---2---2---2--|---------4---4------------------|
Suggest correction
comments
print report bad tab
guest
You may want to rate the tab now too:
select rating
Wanna post a correction for this tab? Suggest correction