Oops, an error
Loading. Please wait.
We have an official Boulevard Of Broken Dreams tab made by UG professional guitarists. Check out the tab »
×

Boulevard Of Broken Dreams tab

version 12
version 12

Whole song

Video

304 views 21 this week
no commentswrite comment
1 2 3 4 5
x 3
add to favorites
×
Save as Personal and add changes to this tab that will be seen only by you. Learn more ›
×
You can save this tab as Personal to edit and correct it or add notes. All changes will be seen only by you. Learn more »
launch autoscroll
font size
0
reset
how to read this tab
guitar tuner
backing track
0:00
0:00
edit
Autoscroll
slow
fast
+/-
esc
set tempo
stop
About this tab version
This is the vocal melody tabbed for guitar. Was this info helpful? Yes No
Artist : Green Day
Song : Boulevard Of Broken Dreams
Album : American Idiot
Release Date : 2004
Produced by : Rob Cavallo, Green Day


  I walk a lonely road, The only one that i have ever known
E|--------------------------------------------------|
B|-------------4------------------------------------|
G|----------1-----5-----5--3--1--3--1-3---5--3--1---|
D|-3--3--5----------------------------------------3-|
A|--------------------------------------------------|
E|--------------------------------------------------|

  Don't know where it goes, But it's home to me and I walk alone
E|---------------------------------------------|
B|----------4----------------------------------|
G|-------1-----5----3--1--3--1-3--3-5--3--1----|
D|-3--5--------------------------------------3-|
A|---------------------------------------------|
E|---------------------------------------------|

  I walk this empty street, On the Boulevard of Broken Dreams
E|----------------------------------------------|
B|-------------4--------------------------------|
G|----------1-----5----3--1--3--1-3---5--3--1---|
D|-3--3--5------------------------------------3-|
A|----------------------------------------------|
E|----------------------------------------------|

  Where the city sleeps, And I'm the only one and I walk alone
E|-------------------------------------------------|
B|----------4--------------------------------------|
G|-------1-----5-----5--3--1--3--1-3--3-5--3--1----|
D|-3--5------------------------------------------3-|
A|-------------------------------------------------|
E|-------------------------------------------------|

  I walk alone I walk alone, I walk alone I walk a...
E|-----------------------------------------------------|
B|-----------------------------------------------------|
G|-----------------------------------------------------|
D|-10--8--6-8---10--8--6---------10--8--6-8---10--8--6-|
A|-----------------------8-----------------------------|
E|-----------------------------------------------------|

  My shadow's the only one that walks beside me
E|-------------------------------------|
B|-------------------------------------|
G|-10--8-------------------------------|
D|--------6--8----6--8--6-8---10--8--6-|
A|-------------------------------------|
E|-------------------------------------|

  My shallow heart's the only thing that's beating
E|-------------------------------------|
B|-------------------------------------|
G|-10--8-------------------------------|
D|--------6--8----6--8--6-8---10--8--6-|
A|-------------------------------------|
E|-------------------------------------|

  Sometimes I wish someone out there will find me
E|-------------------------------------|
B|-------------------------------------|
G|-10--8-------------------------------|
D|--------6--8----6--8--6-8---10--8--6-|
A|-------------------------------------|
E|-------------------------------------|

  'Til then I walk alone
E|-----------------------|
B|-----------------------|
G|-10--8-----8/9---------|
D|--------6-------10--8^-|
A|-----------------------|
E|-----------------------|

  Ah-ah, ah-ah, ah-ah, aaah-ah
E|---------------------------------|
B|---------------------------------|
G|---------------------------------|
D|-5--6----10--8-----5--6----6---3-|
A|---------------------------------|
E|---------------------------------|

  Ah-ah, ah-ah, ah-ah, aaah
E|-----------------------------|
B|-----------------------------|
G|-----------------------------|
D|-5--6----10--8-----5--6----6-|
A|-----------------------------|
E|-----------------------------|

  I'm walking down the line, That divides me somewhere in my mind
E|------------------------------------------------|
B|------------------------------------------------|
G|-------------8----------3--1--3--1-3--5--3--1---|
D|-3--3--5--6-----10----------------------------3-|
A|------------------------------------------------|
E|------------------------------------------------|

  On the border line, Of the edge and where I walk alone
E|-------------------------------------------|
B|----------4--------------------------------|
G|-------1-----5----3--1--3--1-3--5--3--1----|
D|-3--5------------------------------------3-|
A|-------------------------------------------|
E|-------------------------------------------|

  Read between the lines, Of what's fucked up and everything's alright
E|-------------------------------------------|
B|----------4--------------------------------|
G|-------1-----5----3--1--3--1-3--5--3--1----|
D|-3--5------------------------------------3-|
A|-------------------------------------------|
E|-------------------------------------------|

  Check my vital signs, To know I'm still alive and I walk alone
E|------------------------------------------------|
B|----------4-------------------------------------|
G|-------1-----5----5--3--1--3--1-3--3-5--3--1----|
D|-3--5-----------------------------------------3-|
A|------------------------------------------------|
E|------------------------------------------------|

  I walk alone I walk alone, I walk alone I walk a...
E|-----------------------------------------------------|
B|-----------------------------------------------------|
G|-----------------------------------------------------|
D|-10--8--6-8---10--8--6---------10--8--6-8---10--8--6-|
A|-----------------------8-----------------------------|
E|-----------------------------------------------------|


  My shadow's the only one that walks beside me
E|-------------------------------------|
B|-------------------------------------|
G|-10--8-------------------------------|
D|--------6--8----6--8--6-8---10--8--6-|
A|-------------------------------------|
E|-------------------------------------|

  My shallow heart's the only thing that's beating
E|-------------------------------------|
B|-------------------------------------|
G|-10--8-------------------------------|
D|--------6--8----6--8--6-8---10--8--6-|
A|-------------------------------------|
E|-------------------------------------|

  Sometimes I wish someone out there will find me
E|-------------------------------------|
B|-------------------------------------|
G|-10--8-------------------------------|
D|--------6--8----6--8--6-8---10--8--6-|
A|-------------------------------------|
E|-------------------------------------|

  'Til then I walk alone
E|-----------------------|
B|-----------------------|
G|-10--8-----8/9---------|
D|--------6-------10--8^-|
A|-----------------------|
E|-----------------------|

  Ah-ah, ah-ah, ah-ah, aaah-ah
E|---------------------------------|
B|---------------------------------|
G|---------------------------------|
D|-5--6----10--8-----5--6----6---3-|
A|---------------------------------|
E|---------------------------------|

  Ah-ah, ah-ah, I walk alone I walk a...
E|-----------------------------------------|
B|-----------------------------------------|
G|-----------------------------------------|
D|-5--6----10--8-----10--8--6-8---10--8--6-|
A|-----------------------------------------|
E|-----------------------------------------|

  I walk this empty street, On the Boulevard of Broken Dreams
E|------------------------------------------------|
B|------------------------------------------------|
G|-------------8----------3--1--3--1-3--5--3--1---|
D|-3--3--5--6-----10----------------------------3-|
A|------------------------------------------------|
E|------------------------------------------------|

  Where the city sleeps, And I'm the only one and I walk a...
E|----------------------------------------|
B|----------4-----------------------------|
G|-------1-----5----3--1--3--1-3--5--3--1-|
D|-3--5-----------------------------------|
A|----------------------------------------|
E|----------------------------------------|

  My shadow's the only one that walks beside me
E|-------------------------------------|
B|-------------------------------------|
G|-10--8-------------------------------|
D|--------6--8----6--8--6-8---10--8--6-|
A|-------------------------------------|
E|-------------------------------------|

  My shallow heart's the only thing that's beating
E|-------------------------------------|
B|-------------------------------------|
G|-10--8-------------------------------|
D|--------6--8----6--8--6-8---10--8--6-|
A|-------------------------------------|
E|-------------------------------------|

  Sometimes I wish someone out there will find me
E|-------------------------------------|
B|-------------------------------------|
G|-10--8-------------------------------|
D|--------6--8----6--8--6-8---10--8--6-|
A|-------------------------------------|
E|-------------------------------------|

  'Til then I walk alone...
E|-----------------------|
B|-----------------------|
G|-10--8-----8/9---------|
D|--------6-------10--8^-|
A|-----------------------|
E|-----------------------|


************************

|  /  =  slide down
|  ^  =  bend

************************
Suggest correction
Creating personal tab
Creating personal tab
You can edit any tab online and save it as your Personal.

You can edit, replace or remove any tab part or add personal notes – all changes will be seen only by you.

Personal tabs can be accessed anytime from any device, even offline.
Learn more »
Give kudos to tab author, rate the tab!
1 2 3 4 5
comments
print report bad tab
guest
You may want to rate the tab now too:
select rating
Wanna post a correction for this tab? Suggest correction