Oops, an error
Loading. Please wait.
We have an official Bouncing Off The Wall tab made by UG professional guitarists. Check out the tab »
×
1,114 views 24 this week
no commentswrite comment
1 2 3 4 5
x 4
add to favorites
launch autoscroll
font size
0
reset
guitar tuner
Autoscroll
slow
fast
+/-
esc
set tempo
stop
Author
Intro
G|-------|--------------|---------------------|--------------|-----------------|
D|-------|--------------|---------------------|--------------|-----------------|
A|-------|----7---------|-10-10-10-10-7-7-7-7-|----7---------|-5-5-5-7-9-9-9-9-|
E|-5-5-6-|-7-----7--7-7-|---------------------|-7-----7--7-7-|-----------------|

G|--------------|---------------------|--------------|-----------------|
D|--------------|---------------------|--------------|-----------------|
A|----7---------|-10-10-10-10-7-7-7-7-|----7---------|-5-5-5-7-9-9-9-9-|
E|-7-----7--7-7-|---------------------|-7-----7--7-7-|-----------------|

Verse
Rest, then:
G|-------|-------|
D|-------|-------|
A|-------|---7---| x2
E|-5-5-6-|-7---7-|

G|-------|--------------|---------------------|--------------|-----------------|
D|-------|--------------|---------------------|--------------|-----------------|
A|-------|----7---------|-10-10-10-10-7-7-7-7-|----7---------|-5-5-5-7-9-9-9-9-|
E|-5-5-6-|-7-----7--7-7-|---------------------|-7-----7--7-7-|-----------------|

Rest, then:
G|-------|-------|
D|-------|-------|
A|-------|---7---|
E|-5-5-6-|-7---7-|

Chorus
G|-----------------|-----------------|-----------------|-----------------|
D|-----------------|-----------------|-----------------|-----------------|
A|-7-7-7-7-7-7-7-7-|-7-7-7-7-7-7-7-7-|-----------------|-----------------|
E|-----------------|-----------------|-7-7-7-7-7-7-7-7-|-7-7-7-7-7-7-7-7-|

G|-----------------|-----------------|-----------------|-----------------|
D|-----------------|-----------------|-----------------|-----------------|
A|-----------------|-----------------|-----------------|-9-9-9-9-9-------|
E|-4-4-4-4-4-4-4-4-|-7-7-7-7-7-7-7-7-|-5-5-5-5-5-5-5-5-|-----------5-5-6-|

Solo
G|--------------|---------------------|--------------|-----------------|
D|--------------|---------------------|--------------|-----------------|
A|----7---------|-10-10-10-10-7-7-7-7-|----7---------|-5-5-5-7-9-9-9-9-|
E|-7-----7--7-7-|---------------------|-7-----7--7-7-|-----------------|

G|--------------|---------------------|-----------------|-----------------|
D|--------------|---------------------|-----------------|-----------------|
A|----7---------|-10-10-10-10-7-7-7-7-|-----------------|-----------------|
E|-7-----7--7-7-|---------------------|-7-7-7-7-7-7-7-7-|-7-7-7-7-7-7-7-7-|

G|-----------------|-------------|
D|-----------------|-------------|
A|-----------------|-9-9-9-9-9---|
E|-9-9-9-9-9-9-9-9-|-------------|


Chorus
G|-----------------|-----------------|-----------------|-----------------|
D|-----------------|-----------------|-----------------|-----------------|
A|-7-7-7-7-7-7-7-7-|-7-7-7-7-7-7-7-7-|-----------------|-----------------|
E|-----------------|-----------------|-7-7-7-7-7-7-7-7-|-7-7-7-7-7-7-7-7-|

G|-----------------|-----------------|-----------------|-----------------|
D|-----------------|-----------------|-----------------|-----------------|
A|-----------------|-----------------|-----------------|-9-9-9-9-9-------|
E|-4-4-4-4-4-4-4-4-|-7-7-7-7-7-7-7-7-|-5-5-5-5-5-5-5-5-|-----------5-5-6-|

Outro
Rest, then:
G|--------------|---------------------|--------------|-----------------|
D|--------------|---------------------|--------------|-----------------|
A|----7---------|-10-10-10-10-7-7-7-7-|----7---------|-5-5-5-7-9-9-9-9-|
E|-7-----7--7-7-|---------------------|-7-----7--7-7-|-----------------|

G|--------------|---------------------|--------------|-----------------|
D|--------------|---------------------|--------------|-----------------|
A|----7---------|-10-10-10-10-7-7-7-7-|----7---------|-5-5-5-7-9-9-9-9-|
E|-7-----7--7-7-|---------------------|-7-----7--7-7-|-----------------|

G|-------------|------------|---------|
D|-------------|------------|---------|
A|----7-----7--|------------|---------|
E|-7-----7-----|-7----5-5-6-|-7-------|
Suggest correction
comments
print report bad tab
guest
You may want to rate the tab now too:
select rating
Wanna post a correction for this tab? Suggest correction