Oops, an error
Loading. Please wait.

Brain Stew Bass Tab

version 3
version 3
14,425 views 1 this week
3 commentsread comments
1 2 3 4 5
x 5
add to favorites
launch autoscroll
font size
0
reset
guitar tuner
Autoscroll
slow
fast
+/-
esc
set tempo
stop
Help us to improve Ultimate-Guitar.com Take our survey!
×
Everybody always seems to screw the bridge up and make it like the verse when it is not. 
This song is tuned down a half step. I think everyone can figure out the order themselves.


[Verse]

Gb|----------------------------------|
Db|----------------------------------|
Ab|----------------------------------|
Eb|-5-5----3-3----2-2----1-1---0-0---|


[Bridge]

Gb|----------------------------------|
Db|---7-7---5-5---4-4---3-3---2-2----|
Ab|----------------------------------|
Eb|-5-----3-----2-----1-----0--------|
Suggest correction
comments
print report bad tab
3 comments total.
0 reply
mittens16 20 Jan 16, 2003 12:00 AM

no affence ,but this whole tab is wrong ,all of the notes are wrong

0 reply
BasketCase87 80 Jan 19, 2003 12:00 AM

tune down 1/2 a step, and play
5-5--3-3--2-2--1-1--0-0

0 reply
wingdixon 10 Apr 05, 2007 11:24 PM

The verse is ok, although do what basketcase87 says.

The chorus is tuned wrong, and dosen't do the "whakakakaka" thing.

The outro is ok, although do what basketcase87 says.

guest
You may want to rate the tab now too:
select rating
Wanna post a correction for this tab? Suggest correction