Oops, an error
Loading. Please wait.

Brain Stew Tab

version 5
6,311 views 15 this week
4 commentsread comments
1 2 3 4 5
worth learning
x 6
add to favorites
launch autoscroll
font size
0
reset
how to read this tab
guitar tuner
Tab Pro tools
  • play this tab
  • loop segment
  • change instrument
  • show fretboard
  • metronome
Autoscroll
slow
fast
+/-
esc
set tempo
stop
Contributor
Artist: Green Day
Song: Brain Stew
Tuning: Standard (EADGBe)
Tabbed By: InertZero0 (inertzero0@earthlink.net)

For the most part this song is one riff played over and over again, just in different forms.
I'll tab it for you anyway, because I could use to get some more tabs here.:) 
ANd If you can't figure out how to play the song after reading this tab along with listening
to the song, you must have been dropped on your head as a baby, many times.

KEY

X - Rake Strings (Mute with fret hand)
~ - Let Ring

Riff A (Play 11x)
|------------------------------|
|------------------------------|
|------------------------------|
|------------------------------|
|-9-9----7-7----5-5----4-4-3-3-|
|-7-7----5-5----3-3----2-2-1-1-|

Riff B (Play 1x)
|--------------------------------|
|--------------------------------|
|--------------------------------|
|--------------------------------|
|-9-9----7-7----5-5----4-4~-3-3~-|
|-7-7----5-5----3-3----2-2~-1-1~-|

Riff C (Play 2x)
|---------------------------------------|
|---------------------------------------|
|---------------------------------------|
|---------------------------------------|
|-9-9-XXXXX-7-7-XXXXX-5-5-XXXXX-4-4-3-3-|
|-7-7-XXXXX-5-5-XXXXX-3-3-XXXXX-2-2-1-1-|

Riff A (3x)

Riff B (1x)

Riff C (2x)

Riff A (3x)

Riff B (1x)

Riff D (Play 5x)
|---------------------------------|
|---------------------------------|
|---------------------------------|
|---------------------------------|
|-9-9~~~~~7-7~~~~~5-5~~~~~4-4-3-3-|
|-7-7~~~~~5-5~~~~~3-3~~~~~2-2-1-1-|

Then after last time through Riff D
|---------------------------------|
|---------------------------------|
|---------------------------------|
|---------------------------------|
|-9-9~~~~~~~~~~~~~~~~~~~~~~~~~~~~~|
|-7-7~~~~~~~~~~~~~~~~~~~~~~~~~~~~~|

I'm pretty sure that's it. If you have any questions, send them to the email at the top of this tab.
comments
print report bad tab
4 comments total. Showing first comments.
0 reply
TheIllusionist wrote on October 5 2002, 12:00 am

This tab is WRONG.
The tuning is Eb and the actual riff is:


|--------------|
|--------------|
|--------------|
|-77-55-44-3-2-|
|-77-55-44-3-2-|
|-55-33-22-1-0-|

0 reply
Thedboy wrote on September 4 2007, 05:51 pm

the tabber was probably dropped on his head as a baby.

if you tune to Eb you play
|----------------|
|----------------|
|----------------|
|-88-66-55-44-33-|
|-88-66-55-44-33-|
|-66-44-33-22-11-|

If you tune standard, play
|----------------|
|----------------|
|----------------|
|-77-55-44-33-22-|
|-77-55-44-33-22-|
|-55-33-22-11-00-|

0 reply
Hinder11 wrote on September 22 2007, 02:20 am

I agree with Thedboy.

I want to post or [tab]
guest
You may want to rate the tab now too:
select rating
Please do not post tabs as comments. Select "correction" instead!