Oops, an error
Loading. Please wait.

Brutal Love Tab

version 1
version 1

Whole song

Interactive

60,379 views 75 this week
8 commentsread comments
1 2 3 4 5
x 60
add to favorites
launch autoscroll
font size
0
reset
how to read this tab
guitar tuner
Autoscroll
slow
fast
+/-
esc
set tempo
stop
Help us to improve Ultimate-Guitar.com Take our survey!
×
Author
Difficulty
intermediate
======================================================================================================
                                      Brutal Love - Green Day
======================================================================================================
Standard Tuning                                                                              Key Of Ab
6/8



Intro:[Clean] 0:00
|---------------|
|---------------|
|--------5------|
|------6---6----| X4
|----6-------6--|
|--4------------|
        Ab



[Verse 1]
0:08  Ab          Eb          Ab           Db           Ab          Eb          Ab
------------|------------|-----------|------------|-----------|------------|-----------|
------------|-------8----|-----------|-------6----|-----------|-------8----|-----------|
-------5----|-----8---8--|------5----|-----6---6--|------5----|-----8---8--|------5----|
-----6---6--|---8-------8|----6---6--|---6-------6|----6---6--|---8-------8|----6---6--| (x4)
---6-------6|-6----------|--6-------6|-4----------|--6-------6|-6----------|--6-------6|
-4----------|------------|4----------|------------|4----------|------------|4----------|
     x2           x2           x2           x2          x2          x2           x4
 

2nd repeat - Piano does higher arpeggio's with guitar (1-3-5-8)
3rd repeat - Guitar 2 does staccato of chord on highest note of arpeggio (Beat 4 of 6)
4th repeat - last two repeats are Ab7, so 4-6-4-5




2:10 (Gtr2 Still playing staccato's)                    Ab7
------------|-----------|------------|------------|------------|
-------6----|-----------|------8-----|------------|------------|
-----6---6--|------5----|----8---8---|------5-----|------5-----|
---6-------6|----6---6--|--8-------8-|----6---6---|----4---4---| 
-4----------|--6-------6|6-----------|--6-------6-|--6-------6-|
------------|4----------|------------|4-----------|4-----------|..
      x2          x2          x2
                              Fmin
------------|-----------|-------1-1-1|------------|------------|
-------6----|-----------|-----1---1-1|-------6----|-8----------|
-----6---6--|------5----|---1-----1-1|-----6---6--|-8----------|
---6-------6|----6------|------------|---6-------6|-8----------| 
-4----------|--6--------|------------|-4----------|-6----------|
------------|4-------4-3|-1----------|------------|------------|
     x2                                    x2    


             2:38 - 2:43 . . .

[Lead Brake Rhythm]
2:44  Ab         Cmin         Db           E  
---------------------------------------------------|
--------------4-4-4-4-4-4-6-6-6-6-6-6-0-0-0-0-0-0--|
--5-5-5-5-5-5-5-5-5-5-5-5-6-6-6-6-6-6-1-1-1-1-1-1--|
--6-6-6-6-6-6-5-5-5-5-5-5-6-6-6-6-6-6-2-2-2-2-2-2--| 
--6-6-6-6-6-6-3-3-3-3-3-3-4-4-4-4-4-4-2-2-2-2-2-2--|
--4-4-4-4-4-4-------------------------0-0-0-0-0-0--| ..
       Ab          G          Db       Eb    A5   
---------------------------------------------------|
--------------------------6-6-6-6-6-6-8-8-8--------|
--5-5-5-5-5-5-4-4-4-4-4-4-6-6-6-6-6-6-8-8-8--------|
--6-6-6-6-6-6-5-5-5-5-5-5-6-6-6-6-6-6-8-8-8--7\\---| x2
--6-6-6-6-6-6-5-5-5-5-5-5-4-4-4-4-4-4-6-6-6--7\\---|
--4-4-4-4-4-4-3-3-3-3-3-3--------------------5\\---|
|
|
2:44 Gtr2 Lead Brake
---------------------------------------------------------------------|
---------------------------------------------------------------------|
-1~-1~~/10-8~---8-10-8~-10-8~\1~~~~-1~-5~-0~0~-00-1~-3~--3-1-3~------|
-----------------------------------------------------------------7\\-| x2 
-----------------------------------------------------------------7\\-|
-----------------------------------------------------------------5\\-|



3:15 ''Bad Luck''                                                     Ab7
---------------------------------------------------------------------------|
-6-6-6-6-------------------8-8-8-8-8-8-8-8-8-8-8-8-------------------------|
-6-6-6-6------5-5-5-5------8-8-8-8-8-8-8-8-8-8-8-8-5-5-5-5-5-5-5-5-5-5-5-5-|
-6-6-6-6-(x2)-6-6-6-6-(x2)-8-8-8-8-8-8-8-8-8-8-8-8-6-6-6-6-6-6-6-6-6-4-4-4-| 
-4-4-4-4------6-6-6-6------6-6-6-6-6-6-6-6-6-6-6-6-6-6-6-6-6-6-6-6-6-6-6-6-|
--------------4-4-4-4------------------------------4-4-4-4-4-4-4-4-4-4-4-4-|

3:29 ''Bad Love''
---------------------------------------------------------------------------|
-6-6-6-6------------------1-1-1-1-1-1-6-6-6-6-6-6-6-6-6-6-6-6-8-8-8-8-8-8--|
-6-6-6-6------5-5-5-------1-1-1-1-1-1-6-6-6-6-6-6-6-6-6-6-6-6-8-8-8-8-8-8--|
-6-6-6-6-(x2)-6-6-6-------3-3-3-3-3-3-6-6-6-6-6-6-6-6-6-6-6-6-8-8-8-8-8-8--| 
-4-4-4-4------6-6-6-------3-3-3-3-3-3-4-4-4-4-4-4-4-4-4-4-4-4-6-6-6-6-6-6--|
--------------4-4-4-4-3-1-1-1-1-1-1-1--------------------------------------|..
KEY CHANGE
--------------|
-999999999999-|
-999999999999-|
-999999999999-| 
-777777777777-|
--------------|


[Outro]
Key Of A
       A           C#m           D               F
-----------------------------------------------------------|
---------------5-5-5-5-5-5--7-7-7-7-7-7--10-10-10-10-10-10-|
--6-6-6-6-6-6--6-6-6-6-6-6--7-7-7-7-7-7--10-10-10-10-10-10-|
--7-7-7-7-7-7--6-6-6-6-6-6--7-7-7-7-7-7--10-10-10-10-10-10-| 
--7-7-7-7-7-7--4-4-4-4-4-4--5-5-5-5-5-5--8--8--8--8--8--8--|
--5-5-5-5-5-5----------------------------------------------|..
       A           G#            D         E     Bb       END ON A
-----------------------------------------------------|     ---
----------------------------7-7-7-7-7-7--9-9-9-------|     ---
--6-6-6-6-6-6--5-5-5-5-5-5--7-7-7-7-7-7--9-9-9-7-7-7-|     -6~
--7-7-7-7-7-7--6-6-6-6-6-6--7-7-7-7-7-7--9-9-9-8-8-8-| (x4)-7~
--7-7-7-7-7-7--6-6-6-6-6-6--5-5-5-5-5-5--7-7-7-8-8-8-|     -7~
--5-5-5-5-5-5--4-4-4-4-4-4---------------------6-6-6-|..   -5~

Done. rate and comment please :P
Suggest correction
comments
print report bad tab
8 comments total. Showing first comments.
0 reply
jaayx 96 Dec 11, 2012 06:19 PM

Thanks so much!

0 reply
rhn94 20 Feb 07, 2013 10:22 PM

pretty good .. i just finished playing it

0 reply
deathfromala 4,948 Feb 08, 2013 07:57 AM

cheers man!

guest
You may want to rate the tab now too:
select rating
Wanna post a correction for this tab? Suggest correction