Oops, an error
Loading. Please wait.

Brutal Love Tab

version 1
version 1

Whole song

Interactive

59,206 views 129 this week
8 commentsread comments
1 2 3 4 5
excellent!
x 57
add to favorites
launch autoscroll
font size
0
reset
how to read this tab
guitar tuner
Autoscroll
slow
fast
+/-
esc
set tempo
stop
Help us to improve Ultimate-Guitar.com Take our survey!
×
Author
Difficulty
intermediate
GREEN DAY
Brutal Love
Standard Tuning

*Update* 6/12/13 - Tidier, shorter, AND WOW! There were Alot of mistakes
I decided to fix this now Im better at tabbing. this is now 99% Accurate.


Intro:[Clean] 0:00
e|---------------|
B|---------------|
G|--------5------|
D|------6---6----| X4
A|----6-------6--|
E|--4------------|
       G#Maj

Verse 1
0:08 G#Maj       D#Maj       G#Maj        C#Maj       G#Maj       D#Maj        G#Maj
------------|------------|-----------|------------|-----------|------------|-----------|
------------|-------8----|-----------|-------6----|-----------|-------8----|-----------|
-------5----|-----8---8--|------5----|-----6---6--|------5----|-----8---8--|------5----|
-----6---6--|---8-------8|----6---6--|---6-------6|----6---6--|---8-------8|----6---6--| (x4)
---6-------6|-6----------|--6-------6|-4----------|--6-------6|-6----------|--6-------6|
-4----------|------------|4----------|------------|4----------|------------|4----------|
     x2           x2           x2           x2          x2          x2           x4
 
2nd repeat - Piano does higher octave arpeggio's with guitar
3rd repeat on - Guitar 2 does staccato of chord on highest note of arpeggio
4th repeat - last two repeats are Gmaj7, so 4-6-4-5




2:10 (Gtr2 Still playing staccato's)                   Gmaj7
------------|-----------|------------|------------------------|
-------6----|-----------|-------8----|------------------------|
-----6---6--|------5----|-----8---8--|------5-----------5-----|
---6-------6|----6---6--|---8-------8|----6---6-------4---4---| 
-4----------|--6-------6|-6----------|--6-------6---6-------6-|
------------|4----------|------------|4-----------4-----------|..
      x2          x2          x2
                              Fmin
------------|------------------------|------------|----|
-------6----|-------------------1----|-------6----|-8--|
-----6---6--|------6----------1---1--|-----6---6--|-8--|
---6-------6|----4----------3-------3|---6-------6|-8--| 
-4----------|--6---------------------|-4----------|-6--|
------------|4--------4-3-1----------|------------|----|
      x2                                    x2    


             2:38 - 2:43 . . .

Lead Brake Rhythm 
2:44 Gtr1     CMaj                    EMaj  
---------------------------------------------------|
--------------5-5-5-5-5-5-6-6-6-6-6-6-9-9-9-9-9-9--|
--5-5-5-5-5-5-5-5-5-5-5-5-6-6-6-6-6-6-9-9-9-9-9-9--|
--6-6-6-6-6-6-5-5-5-5-5-5-6-6-6-6-6-6-9-9-9-9-9-9--| 
--6-6-6-6-6-6-3-3-3-3-3-3-4-4-4-4-4-4-7-7-7-7-7-7--|
--4-4-4-4-4-4--------------------------------------| ..
||            GMaj
---------------------------------------------------|
--------------------------------------8-8-8--------|
--5-5-5-5-5-5-4-4-4-4-4-4-5-5-5-5-5-5-8-8-8--------|
--6-6-6-6-6-6-5-5-5-5-5-5-6-6-6-6-6-6-8-8-8--8//---| x2
--6-6-6-6-6-6-5-5-5-5-5-5-6-6-6-6-6-6-6-6-6--8//=--|
--4-4-4-4-4-4-3-3-3-3-3-3-4-4-4-4-4-4--------6//---|
|
|
2:44 Gtr2 Lead Brake
---------------------------------------------------------------|
---------------------------------------------------------------|
-1~\--10-8---8-10-8~-10-8--1~----1~-5~-0~--0-1~-3~--3-1-3~-----|
-----------------------------------------------------------8//-| x2 
-----------------------------------------------------------8//-|
-----------------------------------------------------------6//-|



3:15 ''Bad Luck''
---------------------------------------------------------------------------|
-6-6-6-6-------------------8-8-8-8-8-8-8-8-8-8-8-8-------------------------|
-6-6-6-6------5-5-5-5------8-8-8-8-8-8-8-8-8-8-8-8-5-5-5-5-5-5-5-5-5-5-5-5-|
-6-6-6-6-(x2)-6-6-6-6-(x2)-8-8-8-8-8-8-8-8-8-8-8-8-6-6-6-6-6-6-6-6-6-4-4-4-| 
-4-4-4-4------6-6-6-6------6-6-6-6-6-6-6-6-6-6-6-6-6-6-6-6-6-6-6-6-6-6-6-6-|
--------------4-4-4-4------------------------------4-4-4-4-4-4-4-4-4-4-4-4-|

3:29 ''Bad Love''
---------------------------------------------------------------------------|
-6-6-6-6------------------------------6-6-6-6-6-6-6-6-6-6-6-6-8-8-8-8-8-8--|
-6-6-6-6------5-5-5-------1-1-1-1-1-1-6-6-6-6-6-6-6-6-6-6-6-6-8-8-8-8-8-8--|
-6-6-6-6-(x2)-6-6-6-------3-3-3-3-3-3-6-6-6-6-6-6-6-6-6-6-6-6-8-8-8-8-8-8--| 
-4-4-4-4------6-6-6-------3-3-3-3-3-3-4-4-4-4-4-4-4-4-4-4-4-4-6-6-6-6-6-6--|
--------------4-4-4-4-3-1-1-1-1-1-1-1--------------------------------------|..
KEY CHANGE
--------------|
-999999999999-|
-999999999999-|
-999999999999-| 
-777777777777-|
--------------|


3:44 Outro
-----------------------------------------------------------|
---------------6-6-6-6-6-6--7-7-7-7-7-7--10-10-10-10-10-10-|
--6-6-6-6-6-6--6-6-6-6-6-6--7-7-7-7-7-7--10-10-10-10-10-10-|
--7-7-7-7-7-7--6-6-6-6-6-6--7-7-7-7-7-7--10-10-10-10-10-10-| 
--7-7-7-7-7-7--4-4-4-4-4-4--5-5-5-5-5-5--8--8--8--8--8--8--|
--5-5-5-5-5-5----------------------------------------------|..
|                                                           END ON
-----------------------------------------------------|     ---
-----------------------------------------9-9-9-------|     ---
--6-6-6-6-6-6--5-5-5-5-5-5--6-6-6-6-6-6--9-9-9-8-8-8-|     -6~
--7-7-7-7-7-7--6-6-6-6-6-6--7-7-7-7-7-7--9-9-9-8-8-8-| (x4)-7~
--7-7-7-7-7-7--6-6-6-6-6-6--7-7-7-7-7-7--7-7-7-8-8-8-|     -7~
--5-5-5-5-5-5--4-4-4-4-4-4--5-5-5-5-5-5--------6-6-6-|..   -5~

Done. rate and comment please :P
Suggest correction
comments
print report bad tab
8 comments total. Showing first comments.
0 reply
jaayx 96 wrote on December 11 2012, 06:19 pm

Thanks so much!

0 reply
rhn94 20 wrote on February 7 2013, 10:22 pm

pretty good .. i just finished playing it

0 reply
deathfromala 3,260 wrote on February 8 2013, 07:57 am

cheers man!

guest
You may want to rate the tab now too:
select rating
Wanna post a correction for this tab? Suggest correction