Oops, an error
Loading. Please wait.

Brutal Love Tab

version 2
version 2

Whole song

Interactive

14,399 views 18 this week
4 commentsread comments
1 2 3 4 5
excellent!
x 6
add to favorites
launch autoscroll
font size
0
reset
how to read this tab
guitar tuner
Tab Pro tools
  • play this tab
  • loop segment
  • change instrument
  • show fretboard
  • metronome
Autoscroll
slow
fast
+/-
esc
set tempo
stop
Contributor
Difficulty
intermediate
One of the best songs from ¡TRE!
There are a couple of versions on the site already, I'd like to share how I think it is. 
Standard tuning.


INTRO
         G#
e|---------------|
B|---------------|
G|--------5------|
D|------6---6----| X4
A|----6-------6--|
E|--4------------|
       

1st verse - Turn out the lights...
2nd verse - Oh how you want it...
3rd verse - Old toys...
4th verse - Danger, not quite at home...
  G#            Eb             G#
e|---------------------------------------|
B|--------------------8------------------|
G|-------5----------8---8----------5-----|  
D|-----6---6------8-------8------6---6---|
A|---6-------6--6--------------6-------6-|
E|-4-------------------------4-----------|
      X2             X2              X2         
                                                     
  C#              G#         Eb          G#
e|----------------------------------------------------|
B|--------6-------------------------8-----------------|
G|------6---6----------5----------8---8---------5-----|
D|----6-------6------6---6------8-------8-----6---6---|
A|--4--------------6-------6--6-------------6-------6-|
E|---------------4------------------------4-----------|
       X2             X2            X2         X4

Repeat for verse 1, 2 and 3. 
The 4th verse, right before the chorus, goes like this.

  G#            Eb             G#
e|---------------------------------------|
B|--------------------8------------------|
G|-------5----------8---8----------5-----|  
D|-----6---6------8-------8------6---6---|
A|---6-------6--6--------------6-------6-|
E|-4-------------------------4-----------|
      X2             X2              X2   

 C#              G#         Eb          G#            G#7
e|-----------------------------------------------------------------|
B|--------6-------------------------8------------------------------|
G|------6---6----------5----------8---8---------5------------5-----|
D|----6-------6------6---6------8-------8-----6---6--------4---4---|
A|--4--------------6-------6--6-------------6-------6----6-------6-|
E|---------------4------------------------4------------4-----------|
       X2             X2            X2         X2          X2


 
Chorus - Bad luck...
  C#               G#          Eb         G#
e|-----------------------------------------------------|
B|--------6-------------------------8------------------|
G|------6---6----------5----------8---8----------5-----|
D|----6-------6------6---6------8-------8------6---6---|
A|--4--------------6-------6--6--------------6-------6-|
E|---------------4-------------------------4-----------|
         X2              X2       X2              X2
Bad sex...
   C#           G#          F           C#          Eb
e|---------------------------------------------------------|
B|--------6-----------------------------------6------------|
G|------6---6---------5-----------1---------6---6----8-----|
D|----6-------6-----6---6-------3---3-----6-------6--8-----| 
A|--4-------------6-------6---3-------3-4------------6-----|
E|--------------4-----------1------------------------------|
         X2                             X2    

During SOLO
    G#         Cm           C#          E
e|-----------------------------------------------------|
B|-----------------------------------------------------|
G|--5-5-5-5-5-5-5-5-5-5-5-5-6-6-6-6-6-6-9-9-9-9-9-9----|
D|--6-6-6-6-6-6-5-5-5-5-5-5-6-6-6-6-6-6-9-9-9-9-9-9----| 
A|--6-6-6-6-6-6-3-3-3-3-3-3-4-4-4-4-4-4-7-7-7-7-7-7----|
E|--4-4-4-4-4-4----------------------------------------| 
    G#         G            C#         Eb      A
e|-----------------------------------------------------|
B|-----------------------------------------------------|
G|--------------------------6-6-6-6-6-6-8-8-8----------|
D|--6-6-6-6-6-6-5-5-5-5-5-5-6-6-6-6-6-6-8-8-8-7-7-7----|
A|--6-6-6-6-6-6-5-5-5-5-5-5-4-4-4-4-4-4-6-6-6-7-7-7----|
E|--4-4-4-4-4-4-3-3-3-3-3-3-------------------5-5-5----|

    G#         Cm           C#          E
e|-----------------------------------------------------|
B|-----------------------------------------------------|
G|--5-5-5-5-5-5-5-5-5-5-5-5-6-6-6-6-6-6-9-9-9-9-9-9----|
D|--6-6-6-6-6-6-5-5-5-5-5-5-6-6-6-6-6-6-9-9-9-9-9-9----| 
A|--6-6-6-6-6-6-3-3-3-3-3-3-4-4-4-4-4-4-7-7-7-7-7-7----|
E|--4-4-4-4-4-4----------------------------------------| 
   G#          G            C#           Eb    
e|-----------------------------------------------------|
B|-----------------------------------------------------|
G|--------------------------6-6-6-6-6-6-8-8-8-8-8-8----|
D|--6-6-6-6-6-6-5-5-5-5-5-5-6-6-6-6-6-6-8-8-8-8-8-8----|
A|--6-6-6-6-6-6-5-5-5-5-5-5-4-4-4-4-4-4-6-6-6-6-6-6----|
E|--4-4-4-4-4-4-3-3-3-3-3-3----------------------------|

SOLO

e|----------------------------------------------------------------|
B|----------------------------------------------------------------|
G|---1/---10-8---(8)-10-8--10-8--1----1-5--0---0-1--3---3-1-3-----|
D|----------------------------------------------------------------| X2 
A|----------------------------------------------------------------|
E|----------------------------------------------------------------|

Chorus - Bad luck...
   C#                G#
e|-------------------------------------|
B|-------------------------------------|
G|-6-6-6-6--6-6-6-6--------------------|
D|-6-6-6-6--6-6-6-6--6-6-6-6--6-6-6-6--| 
A|-4-4-4-4--4-4-4-4--6-6-6-6--6-6-6-6--|
E|-------------------4-4-4-4--4-4-4-4--|
   Eb                       G#
e|--------------------------------------------------|
B|--------------------------------------------------|
G|-8-8-8-8-8-8-8-8-8-8-8-8--------------------------|
D|-8-8-8-8-8-8-8-8-8-8-8-8--6-6-6-6-6-6-6-6-6-6-6-6-| 
A|-6-6-6-6-6-6-6-6-6-6-6-6--6-6-6-6-6-6-6-6-6-6-6-6-|
E|--------------------------4-4-4-4-4-4-4-4-4-4-4-4-|



Bad love...

   C#                G#       G F
e|--------------------------------------------|
B|--------------------------------------------|
G|-6-6-6-6--6-6-6-6---------------------------|
D|-6-6-6-6--6-6-6-6--6-6-6-6-6-5-3-3-3-3-3-3--| 
A|-4-4-4-4--4-4-4-4--6-6-6-6-6-5-3-3-3-3-3-3--|
E|-------------------4-4-4-4-4-3-1-1-1-1-1-1--|

   C#                      Eb          E
e|-------------------------------------------------|
B|-------------------------------------------------|
G|-6-6-6-6-6-6-6-6-6-6-6-6-8-8-8-8-8-8-9-9-9-9-9-9-|
D|-6-6-6-6-6-6-6-6-6-6-6-6-8-8-8-8-8-8-9-9-9-9-9-9-| 
A|-4-4-4-4-4-4-4-4-4-4-4-4-6-6-6-6-6-6-7-7-7-7-7-7-|
E|-------------------------------------------------|

    A            C#m          D            F
e|------------------------------------------------------------|
B|------------------------------------------------------------|
G|--6-6-6-6-6-6--6-6-6-6-6-6--7-7-7-7-7-7--10-10-10-10-10-10--|
D|--7-7-7-7-7-7--6-6-6-6-6-6--7-7-7-7-7-7--10-10-10-10-10-10--| 
A|--7-7-7-7-7-7--4-4-4-4-4-4--5-5-5-5-5-5--8--8--8--8--8--8---|
E|--5-5-5-5-5-5-----------------------------------------------|

   A             G#           D            E     A#                          
e|-----------------------------------------------------|     
B|-----------------------------------------------------|     
G|----------------------------7-7-7-7-7-7--9-9-9-------|     
D|--7-7-7-7-7-7--6-6-6-6-6-6--7-7-7-7-7-7--9-9-9-8-8-8-| x4  
A|--7-7-7-7-7-7--6-6-6-6-6-6--5-5-5-5-5-5--7-7-7-8-8-8-|     
E|--5-5-5-5-5-5--4-4-4-4-4-4---------------------6-6-6-|     

   A
e|---|
B|---|
G|-6-|
D|-7-|
A|-7-|
E|-5-|
comments
print report bad tab
4 comments total. Showing first comments.
+1 reply
Johnsson6 wrote on December 16 2012, 06:06 pm

G#7 right before the chorus

0 reply
holyguy wrote on December 17 2012, 08:54 pm

Thanks the G#7! I just added it to the tab.

+1 reply
guitargirlCA wrote on March 31 2013, 03:00 pm

Second line of "during solo" is 5-7-7 not 7-5-5 (on E-A-D), and under G# in "bad sex..." it's 4-6-6-5-6-6 not 4-5-5-6-5-5. Really great tab otherwise, thanks.

I want to post or [tab]
guest
You may want to rate the tab now too:
select rating
Please do not post tabs as comments. Select "correction" instead!