Oops, an error
Loading. Please wait.
We have an official Brutal Love tab made by UG professional guitarists. Check out the tab »
×
193 views 1 this week
1 commentread comment
1 2 3 4 5
3 more votes to show rating
add to favorites
×
Save as Personal and add changes to this tab that will be seen only by you. Learn more ›
×
You can save this tab as Personal to edit and correct it or add notes. All changes will be seen only by you. Learn more »
launch autoscroll
font size
0
reset
how to read this tab
guitar tuner
edit
Autoscroll
slow
fast
+/-
esc
set tempo
stop
Author
Difficulty
[Intro]

e|----------------------------------------------------------------------|
B|----------------------------------------------------------------------|
G|-----5-----5-----5-----5----------------------------------------------|
D|----6-6---6-6---6-6---6-6---------------------------------------------|
A|---6---6-6---6-6---6-6---6--------------------------------------------|
E|--4-----4-----4-----4-----4-------------------------------------------|


[Verse] x4  

e|----------------------------------------------------------------------|
B|------------------8-----8-------------------6-----6-------------------|
G|-----5-----5-----8-8---8-8-----5-----5-----6-6---6-6------------------|
D|----6-6---6-6---8---8-8---8---6-6---6-6---6---6-6---6-----------------|
A|---6---6-6---6-6-----6-------6---6-6---6-4-----4----------------------|
E|--4-----4-------------------4-----4-----------------------------------|

e|----------------------------------------------------------------------|
B|------------------8-----8---------------------------------------------|
G|-----5-----5-----8-8---8-8-----5-----5-----5-----5--------------------|
D|----6-6---6-6---8---8-8---8---6-6---6-6---6-6---6-6-------------------|
A|---6---6-6---6-6-----6-------6---6-6---6-6---6-6---6------------------|
E|--4-----4-------------------4-----4-----4-----4-----4-----------------|


[Pre-Chorus 1]                                                                                      

e|----------------------------------------------------------------------|
B|-----6-----6-------------------8-----8--------------------------------|
G|----6-6---6-6-----5-----5-----8-8---8-8-----5-----5-------------------|
D|---6---6-6---6---6-6---6-6---8---8-8---8---6-6---6-6------------------|
A|--4-----4-------6---6-6---6-6-----6-------6---6-6---6-----------------|
E|---------------4-----4-------------------4-----4-----4----------------|

e|----------------------------------------------------------------------|
B|-----6-----6---------------------6-----6---8--------------------------|
G|----6-6---6-6-----5----2--------6-6---6-6--8--------------------------|
D|---6---6-6---6---6-6---3-------6---6-6---6-8--------------------------|
A|--4-----4-------6---6--3------4-----4------6--------------------------|
E|---------------4-----4-1----------------------------------------------|


[Solo] x2 

e|----------------------------------------------------------------------|
B|----------------------------------------------------------------------|
G|-----8/10--8--8-8h10--8-10-8------------------------------------------|
D|--6~-------------------------6-----6~--/10--\5--6-8-8-6-8-------------|
A|----------------------------------------------------------------------|
E|----------------------------------------------------------------------| 


[Pre-Chorus 2]

e|----------------------------------------------------------------------|
B|----------------------------------------------------------------------|
G|--6666-6666------------888888888888-----------------------------------|
D|--6666-6666-6666-66666-888888888888-666666666666----------------------|
A|--4444-4444-6666-66666-666666666666-666666666666----------------------|
E|------------4444-44444--------------444444444444----------------------|

e|----------------------------------------------------------------------|
B|----------------------------------------------------------------------|
G|--6666-6666------------------666666666666-888888-999999---------------|
D|--6666-6666-66666-5-4-333333-666666666666-888888-999999---------------|
A|--4444-4444-66666-5-4-333333-444444444444-666666-777777---------------|
E|------------44444-3-2-111111------------------------------------------|


[Chorus] x4

e|----------------------------------------------------------------------|
B|----------------------------------------------------------------------|
G|---------666666-777777-111111---------------777777-999----------------|
D|--777777-666666-777777-111111-777777-666666-777777-999-888------------|
A|--777777-444444-555555-888888-777777-666666-555555-777-888------------|
E|--555555----------------------555555-444444------------666------------|


[End]

e|----------------------------------------------------------------------|
B|----------------------------------------------------------------------|
G|----------------------------------------------------------------------|
D|--7-------------------------------------------------------------------|
A|--7-------------------------------------------------------------------|
E|--5-------------------------------------------------------------------|


[Lyrics]

[Verse]

1.
Turn out the lights
Close your eyes
Turn up the silence
The heartache of your life
Dance forever
Under the lights
This brutal love

2.
Oh how you want it
You're begging for it
But you can't have it
Even if you try
It's in the clutches
In the hands of
This brutal love

3.
Old toys
This plastic heart
Loners and fools
Are tearing me apart
Here comes trouble
The uninvited
This brutal love

4.
Danger
Not quite at home
The eyes of temptation
The flesh and my bones
Hello stranger
I'm a disaster
This brutal love


[Pre-Chorus 1]

Bad luck
Bitters and soda
Anguish and shame
The modern fool
Bad sex
Buy me a train wreck
Something for my troubled mind


[Pre-Chorus 2]

Bad luck
Bitters and soda
Anguish and shame
The modern fool
Bad love
Kiss me I'm loaded
Something for my troubled mind

Mad s**
Buy me a train wreck
Something for my troubled
Miiiiind

Mad love
Kiss me, I’m over it
Something for my troubled
Miiiiind


[Chorus]

Drop out
Drop dead hideous
How low is this brutal love?
Drop out
Drop dead hideous
How low is this brutal love?
Drop out
Drop dead hideous
How low is this brutal love?
Drop out
Drop dead hideous
How low is this brutal love?


[End]

This brutal love


***********************************
| /   Slide up
| \   Slide down
| h   Hummer-on
| ~   Vibrato
***********************************

            
            
Suggest correction
Creating personal tab
Creating personal tab
You can edit any tab online and save it as your Personal.

You can edit, replace or remove any tab part or add personal notes – all changes will be seen only by you.

Personal tabs can be accessed anytime from any device, even offline.
Learn more »
Give kudos to tab author, rate the tab!
1 2 3 4 5
comments
print report bad tab
1 comment total.
+1 reply
dzajkof 35 Apr 16, 2016 03:35 AM, edited at 07:36 am

In the chorus it's not 1 8 8
it's 10 8 8
:)

guest
You may want to rate the tab now too:
select rating
Wanna post a correction for this tab? Suggest correction