Oops, an error
Loading. Please wait.

Bullet In A Bible Bass Tab

7,601 views 1 this week
6 commentsread comments
1 2 3 4 5
excellent!
x 12
add to favorites
launch autoscroll
font size
0
reset
guitar tuner
Autoscroll
slow
fast
+/-
esc
set tempo
stop
Help us to improve Ultimate-Guitar.com Take our survey!
×
Author
Difficulty
intermediate
Bullet In A Bible Bass Tabs
    GREEN DAY.
----------------------------

Note: some of these tabs are other peoples and some of my own
----------------------------

1.   American Idiot
2.   Jesus Of Suburbia
 I.   Jesus of Suburbia 
II.  City of the Damned 
III. I Don't Care 
IV. Dearly Beloved 
V.  Tales of Another Broken Home
3.  Holiday
4.  Are We Waiting
5.  St Jimmy
6.  LongView
7.  Hitchin' A Ride
8.  Brainstew
9.  Basketcase 
10. King For A Day/Shout
11. Wake Me Up When September Ends
12. Minority
13. Boulevard Of Broken Dreams
14. Good Riddance (Time Of Your Life)




American Idiot
--------------

--Guitar Intro--

Main Riff:
|-------------------|
|-------------------|
|------4-44---4-----|
|-4-44------22--4-2-|

Chorus:
|---------------------------------------------------------|
|---------------------------------------------------------|
|-44-444-44-444---------------66-666666666----------------|
|---------------44-444-44-444--------------44-444-44-444--|

|---------------------------------------------------|
|---------------------------------------------------|
|-44-444-44-444---------------66-666666666-(Drums)--|
|---------------44-444-44-444-----------------------|
Ending
|-----------|
|-----------|
|---4-4-----|
|-4-----2---|

Order
Main Riff X7
Chorus X1
Main Riff X6
Chorus x1
Bridge - Main Riff x4 pause then Chorus x1.  
Chorus x1
Main Riff X 3
Ending





Jesus Of Suburbia
-----------------

The Order Is Throughout The tab.

JOS Riff 1:
G---------------------------------------------------|
D---------------------------------------------------|
A-4-4-4-4-1-1-1-1-----------------------------------|
E-----------------2222222222222222-4444444444444444-| x2

JOS Riff 2:
G--------------------|
D--------------------|
A--------------------|
E-2-2-222-4-4-444444-| x3

JOS Riff 3:
G--------------------|
D--------------------|
A-4-4----------------|
E-----444-2-2-222222-| x2

JOS Riff 1
JOS Riff 2
JOS Riff 3
JOS Riff 1 (only play once)

JOS Ending:
G-----------------------------------|
D-----------------------------------|
A-4-4-4-4---------1-1-1-------------|
E---------1-1-1-1-------4-4-4-2~-4~-| x1


City of the Damned:

COTD Riff 1:
G-------------------------------|
D-------------------------------|
A-4~-3~-1~----------------------|
E----------4~-22222222-44444444-| x2

COTD Riff 2:
G---------------------------------------------------------|
D---------------------------------------------------------|
A-1111--------4444--------1-1-1-1-------------------------|
E-------4444--------2222----------4-4-4-4-2-2-2-2-2-2-2-2-| x2

COTD Riff 1
COTD Riff 2 (only once)

COTD Ending:
G--------------------------------------------------------------------|
D--------------------------------------------------------------------|
A-1111--------4444-------1-1-1-1-------------------------------------|
E-------4444-------2222----------4-4-4-4-2--2--2-2-2-2-2--2--2-2-2-2-| x1


Nobody Cares:

G-----------------------------------------------------|
D-----------------------------------------------------|
A--------4-4-4--------4-4-4--------4-4-4--------------|
E-4-4-44-------4-4-44-------2-2-22-------4-4-44-4-4-4-| x5

G-----|
D-----|
A-----|
E-2-4-| x1

G--------------------|
D--------------------|
A-4-44-4-44-4-44-----|
E----------------5-4-| x12

G-------------------|
D-------------------|
A---------------4---|
E-2-22-2-22-4-4---4-| x3

G-------------------|    |--------------------|    |             |
D-------------------|    |--------------------|    |-------------|
A-------------------|    |-4-44-4-44-4-44-----|    |-4--4--4--4--|
E-2-22-2-22-4-4-2-4-| x1 |----------------2-4-| x4 |-------------| x1


Dearly Beloved:

G---------------------------------|
D---------------------------------|
A---------------------------------|
E-4-4-4-4-4-4-4-4-4-4-4-4-4-4-4-4-| x1

G-----------------------------------------------------------------|
D-----------------------------------------------------------------|
A-----------------3-3-3-3-3-3-3-3-4-4-4-4-4-4-4-4---------6-6-6-6-|
E-4-4-4-4-4-4-4-4---------------------------------4-4-4-4---------| x6


Tales From Another Broken Home:

TFABH Intro:
G------------------|
D-6-6-66-6-666-----|
A----------------4-|
E--------------2---| x4

TFABH Riff 1:
G------------------|
D------------------|
A----------------4-|
E-4-4-44-4-444-2---| x8

TFABH Riff 2:
G------------------------------|
D------------------------------|
A-4----4----4---6----6-----6---|
E----4----4---4----4-----4---4-| x2

TFABH Riff 1
TFABH Riff 2 (this time play 4 times)

TFABH Bridge:
G-------------------||    ||-----|
D-------------------||    ||-----|
A---4---------------||    ||---4-|
E-2---4-------------|| x2 ||-2---| x1

TFABH Riff 1
TFABH Riff 2
(8:47) TFABH Riff 1 (this time play 4 imtes)

TFABH Ending:
G-----------------------------------------------|
D-----------------------------------------------|
A---------------------4---------------------4---|
E-4-----------------2---4-----------------2---4-| x1





Holiday
-------

This is from the actual song american idiot album for bullet 
ina  bible just play bass solo longer.

Guitar Intro.

-- Verse --
|------------------------------------------------------------------------------|
|------------------------------------------------------------------------------|  X 3
|-------88--44------666--------------------------------------------------------|
|---------------44-------------------------------------------------------------|

|------------------------------------------------------------------------------|
|------------------------------------------------------------------------------|  X 1
|-------88--44------333--------------------------------------------------------|
|---------------44-------------------------------------------------------------|

|------------------------------------------------------------------------------|
|------------------------------------------------------------------------------|  X 1
|-------88--44------33333333---------------------------------------------------|
|---------------44-------------------------------------------------------------|

|------------------------------------------------------------------------------|
|------------------------------------------------------------------------------|  X 1
|-------88--44------666--------------------------------------------------------|
|---------------44-------------------------------------------------------------|

|------------------------------------------------------------------------------|
|------------------------------------------------------------------------------|  X 1
|-------88--44------33333333---------------------------------------------------|
|---------------44-------------------------------------------------------------|

-- Chorus --
|------------------------------------------------------------------------------|
|------------------------------------------------------------------------------|  X 1
|-----------444-44------666-66-------444-44------333333333---------------------|  
|-----111-11------444-44-------111-11------444-44------------------------------|


---- Guitar -----


-- Verse --
|------------------------------------------------------------------------------|
|------------------------------------------------------------------------------|  X 1
|-------88--44------666--------------------------------------------------------|
|---------------44-------------------------------------------------------------|

|------------------------------------------------------------------------------|
|------------------------------------------------------------------------------|  X 1
|-------88--44------333--------------------------------------------------------|
|---------------44-------------------------------------------------------------|

|------------------------------------------------------------------------------|
|------------------------------------------------------------------------------|  X 1
|-------88--44------33333333---------------------------------------------------|
|---------------44-------------------------------------------------------------|


|------------------------------------------------------------------------------|
|------------------------------------------------------------------------------|  X 1
|-------88--44------666--------------------------------------------------------|
|---------------44-------------------------------------------------------------|

|------------------------------------------------------------------------------|
|------------------------------------------------------------------------------|  X 1
|-------88--44------333--------------------------------------------------------|
|---------------44-------------------------------------------------------------|

|------------------------------------------------------------------------------|
|------------------------------------------------------------------------------|  X 1
|-------88--44------33333333---------------------------------------------------|
|---------------44-------------------------------------------------------------|

-- Chorus --
|------------------------------------------------------------------------------|
|------------------------------------------------------------------------------|  X 1
|-----------444-44------666-66-------444-44------333333333---------------------|  
|-----111-11------444-44-------111-11------444-44------------------------------|

Thats a 10 sliding in.
|------------------------------------------------------------------------------|
|------------------------------------------------------------------------------|  X 2
|------------4-6---------6-8---------------------------------------------------|  
|--10\1-1-3/4-6-8\1-1-3/4-8--10\-----------------------------------------------|


-- Guitar Solo --
|------------------------------------------------------------------------------|
|------------------------------------------------------------------------------|  X 1  
|-----44-444----3333--88--66--44-444----33-333-33-333-33-333-33-333------------|
|-----------4444--------------------4444---------------------------------------|

-- Bass Solo --
|------------------------------------------------------------------------------|
|------------------------------------------------------------------------------|  X 6
|------------4-6---------6-8---------------------------------------------------|  
|---1-1-3/4-6-8\1-1-3/4-8---10\------------------------------------------------|

-- Bass Solo Final --
|------------------------------------------------------------------------------|
|------------------------------------------------------------------------------|  
|----33333333-33333333---------------------------------------------------------|  X 1
|------------------------------------------------------------------------------|

-- Final Chorus --
|------------------------------------------------------------------------------|
|------------------------------------------------------------------------------|  X 2
|-----------444-44------666-66-------444-44------333333333---------------------|  
|-----111-11------444-44-------111-11------444-44------------------------------|

-- The End --
|------------------------------------------------------------------------------|
|------------------------------------------------------------------------------|  X 3
|-------88--44------666--------------------------------------------------------|
|---------------44-------------------------------------------------------------|

|------------------------------------------------------------------------------|
|--------------------3---------------------------------------------------------|  X 1
|-------88--44--63-------------------------------------------------------------|  
|------------------------1-----------------------------------------------------|




Are We Waiting
---------------


Main Riff

|--------------------------------------|
|--------------------------------------|
|-----------------------5--------------|
|--5-----------------------------------|

Chorus

|--------------------------------------|
|--------------------------------------|
|---9-------7---------5----------------|  X 2
|--------------------------------------|


Order

Bass Enters with  singing.
Main Riff X3
Verse
Main Riff X5
Verse

Main Riff X5 End.





St Jimmy
--------


Intro
|-------------------------------------------------------------------|
|-------------------------------------------------------------------|
|--------5------5--------5--------5--------5--------5------7---5----|
|--5--------5------5---------5--------5--------5--------------------|

Verse 1
|------------------------------------|
|------------------------------------|
|---------55555-----77777------------|  X6
|--55555-------------------55555-----|

Chorus 
|-----------------------------------------------------------|
|-----------------------------------------------------------|
|----55555555----------------55555555-----7-7-7-7-777-------|
|----------------5555555------------------------------------|


Verse X1


Verse 2
|----------------------------------------------|
|----------------------------------------------|
|---------55555-----77777-------12--12--12-----| X1
|--55555---------------------------------------|


Verse 1  X4


Chorus
|-----------------------------------------------------------|
|-----------------------------------------------------------|
|----55555555----------------55555555-----7-7-7-7-777-------|
|----------------5555555------------------------------------|

Bridge
|--------------------------|
|--------------------------|
|-------5-0-5---7777777----|  X4
|----5---------------------|

Bridge 2
|---------------------------------------------------------|
|---------------------------------------------------------|
|----------------7777777-----333333------666666-----------|     X4
|------555555---------------------------------------------|


Bridge 3
|----------------------------------------------------------------------------|
|----------------------------------------------------------------------------|
|-------------5555----7777---12-12-12-12---12-12-12-12--5555---7777777777777r|  
|-------5555-----------------------------------------------------------------|

Ending
|-----------------------------------------------|
|-----------------------------------------------|
|---------------55555-----33--55----------------|  X5
|--------55555--------------------555-----------|


        
|----------------------------------------------------------------------------|
|----------------------------------------------------------------------------|
|----------5--77-----------5--77----------777777------Wait-----7777----------|
|------55---------5----55---------5---------------5--------------------------|





Longview
--------

INTRO:
G--------------------------------------------------
D--------------------------------------------------
A--------------19\4--------Pluck-Whiel-Slideing----
E--------------------------------------------------

MAIN BASS LINE:
G--------------------------------8-6-5-6-
D------8-6-5-----6-5-------8-6-5-0H------
A--4h6-------6p4-----4-8p6---------------  X6
E---------------------------------------- 

CHORUS:
G---------------   G-----------------------         G---------------------------------
D---------------   D-----------------------         D---------------------------------
A--444444444444-   A--------------444------ X3      A---------------------------------    
E---------------   E----66666-4444---------         E---66666-4444--------------------                   



PRE VERSE BASS LINE:
|------8----6---6-5-3----------------
|--------6h4--8-------6--------------
|---6-------------------------------- X2
|------------------------------------

VERSE (Normal riff)

CHORUS:
G---------------   G-----------------------         G---------------------------------
D---------------   D-----------------------         D---------------------------------
A--444444444444-   A--------------444------ X3      A---------------------------------    
E---------------   E----66666-4444---------         E---66666-4444--------------------   

BRIDGE
G---------------------------------------------------------------------
D----8-6-5------------8-6-5------------8-6-5------------8-6-5---------
A--6-------4-3---8--6-------4-3---8--6-------4-3---8--6-------4-3-----
E--------------6----------------6----------------6----------------6-4-


CHORUS:
G---------------   G-----------------------         G---------------------------------
D---------------   D-----------------------         D---------------------------------
A--444444444444-   A--------------444------ X3      A---------------------------------    
E---------------   E----66666-4444---------         E---66666-4444--------------------   

VERSE 3
|------8----6---6-5-3----------------
|--------6h4--8-------6--------------
|---6-------------------------------- X6
|------------------------------------

G--------------------------------8-6-5-6-
D------8-6-5-----6-5-------8-6-5-0H------
A--4h6-------6p4-----4-8p6---------------  X2
E----------------------------------------

CHORUS 3
G-------------------------
D-------------------------
A--4444444444444444444----
E---------------------444-

G---------------   G-----------------------         G---------------------------------
D---------------   D-----------------------         D---------------------------------
A--444444444444-   A--------------444------ X6      A---------------------------------    
E---------------   E----66666-4444---------         E---66666-4444--------------------   

Ending
|------8----6---6-5-3----------------
|--------6h4--8-------6--------------
|---6-------------------------------- X12
|------------------------------------






Hitchin' A Ride
---------------

Verse

|-------------------------------|
|-------------------------------|
|-------------------------------|  
|---77-55-44-333----------------|

Riff 1
|-------------------------------|
|-------------------------------|
|-------------------------------|  
|---77-55-44--------------------|

PRE Chorus

|-------------------------------|
|-------------------------------|
|-------------------------------|  
|---7-77-5-55-4-44-333----------|


CHORUS:
|------------------------------------------------------|
|------------------------------------------------------|
|-------------------2-2-0-0----------------------------|
|-0-0-0-0--2-2-2-2-----------4-4-3-3--0-0-0-0--2-2-2-2-|


Ending

|-------------------|
|-------------------|
|-2-2-5-5-----------|
|----------3-3-2-2--|

|--------------------|
|--------------------|
|-2-2--------------22|
|------5-5---4-4-----|

Order
Vers X13
Riff 1 X1
Verse X8
Pre Chorus X4
chorus X2
Verse X5
Chorus X4
Ending X 7
Very End X 1





Brainstew
---------

Guitar Plays Beginning
 

Guitar Plays 6 times before bass enters.

|------------------------------------------|
|------------------------------------------|
|------------------------------------------|
|----55---33----22---11-00-----------------|

Whne you get to the loud crazy parts play this . Just slide up to 
anywhere .

|------------------------------------------|
|------------------------------------------|
|------------------------------------------|
|----55/---33/----22/---11-00--------------|

Pretty Much That dont really need an order.






Basketcase
------------


Bass enters when he says i think im cracking up
|-------------------------------------|       |--------|
|-------------------------------------|       |--------|
|-7-7-55-4-444-44------------------7--|       |-8h9-7~-|
|-----------------5-5-55--7-777-77----|       |--------|

Verse
|------------------------------------------------------------------------|
|------------------------4h6---------------------------------------------| x2
|------------------4-4-4---------------------7-7-7-77h9------------------|
|-0-0-000-7-777-77----------4-444-44-5-5-555------------7-7-777-7-777-77-|

Prechorus
|-------------------------------------------|
|---------------------------------9p7-6-9p7-|
|------------------7-7-777-7-777------------|
|-5-5-55-7-777-77p5-------------------------|

|-------------------------------------------|
|---------------------------------6h7-9-7p6-|
|------------------7-7-777-7-777------------|
|-5-5-55-7-777-77p5-------------------------|

|-----------------------------------------------------|
|-----------------------------------------------------|
|------------------7-7-5-5-4-444-4-4------------------|
|-5-5-55-7-777-77p5-----------------5-5-55-7-777-77p5-|

Chorus
|--------------------------|
|--------------------------| x4
|-7------------------------|
|---7-7--9-9--7-7-(0-5h7)--|

|------------------------------       |------|
|------------------------------       |------|
|------------------------------       |--7h8-|
|-5555555555555555-7-7-7777-7~-       |-7----|

Verse
Prechorus


|------------------------------------|
|------------------------------------| x3
|-7-77-77-------------7-7------------|
|--------9-99-99--5-5-----7-777-77p5-|

|-----------------------------------------|
|-----------------------------------------|
|-7-77-77------------7--------------------|
|--------9-99-99--5-----7~--/17--5--0--7~-|







King For A Day/Shout
---------------------
Not one of my favourites but here it is.


Verse 
G|-------------------------------------------------------------------
D|-------------------------------------------------------------------
A|----7-7-----------7-7-----------4-4---------4-4--------------------  X4
E|----------7-7-----------7-7-----------4-4--------4-4---------------

Pre-chorus 
G|-------------------------------------------------------------------
D|-------------------------------------------------------------------
A|--0-0-0-0-0-0-0-0--2-2-2-2-2-2-2-2---------------------------------  X4
E|-------------------------------------------------------------------

Chorus
Part one 
G|-------------------------------------------------------------------
D|-------------------------------------------------------------------
A|----7-7-----------7-7-----------4-4---------4-4--------------------   X3
E|----------7-7-----------7-7-----------4-4--------4-4---------------
Part two 
G|-------------------------------------------------------------------
D|-------------------------------------------------------------------
A|--0-0-0-0-0-0-0-0--2-2-2-2-2-2-2-2---------------------------------   X1
E|-------------------------------------------------------------------

Verse 
G|-------------------------------------------------------------------
D|-------------------------------------------------------------------
A|----7-7-----------7-7-----------4-4---------4-4--------------------   X6
E|----------7-7-----------7-7-----------4-4--------4-4---------------

Pre-chorus 
G|-------------------------------------------------------------------
D|-------------------------------------------------------------------
A|--0-0-0-0-0-0-0-0--2-2-2-2-2-2-2-2---------------------------------  X4
E|-------------------------------------------------------------------

Chorus
Part one 
G|-------------------------------------------------------------------
D|-------------------------------------------------------------------
A|----7-7-----------7-7-----------4-4---------4-4--------------------  X3
E|----------7-7-----------7-7-----------4-4--------4-4---------------
Part two 
G|-------------------------------------------------------------------
D|-------------------------------------------------------------------
A|--0-0-0-0-0-0-0-0--2-2-2-2-2-2-2-2---------------------------------   X1
E|-------------------------------------------------------------------

Bridge 
G|-------------------------------------------------------------------
D|-------------------------------------------------------------------
A|----7-7-----------7-7-----------4-4---------4-4--------------------   X9
E|----------7-7-----------7-7-----------4-4--------4-4---------------

Pre-chorus 
G|-------------------------------------------------------------------
D|-------------------------------------------------------------------  X4
A|--0-0-0-0-0-0-0-0--2-2-2-2-2-2-2-2---------------------------------
E|-------------------------------------------------------------------

Chorus
Part one 
G|-------------------------------------------------------------------
D|-------------------------------------------------------------------
A|----7-7-----------7-7-----------4-4---------4-4--------------------  X7
E|----------7-7-----------7-7-----------4-4--------4-4---------------
Part two 
G|-------------------------------------------------------------------
D|-------------------------------------------------------------------
A|--0-0-0-0-0-0-0-0--2-2-2-2-2-2-2-2---------------------------------   X5
E|-------------------------------------------------------------------

Ending 
G|-------------------------------------------------------------------
D|-------------------------------------------------------------------
A|----7-7-----------7-7-----------4-4---------4-4--------------------   X11
E|----------7-7-----------7-7-----------4-4--------4-4---------------




SHOUT
-----


Verse 
G|-------------------------------------------------------------------
D|-------------------------------------------------------------------
A|---7-----7-----4-----4---------------------------------------------  X3
E|------7-----7-----4------4-----------------------------------------

Pause

Chorus 
G|-------------------------------------------------------------------
D|-------------------------------------------------------------------
A|----7-7-----------7-7-----------4-4---------4-4--------------------
E|----------7-7-----------7-7-----------4-4--------4-4---------------


G|-------------------------------------------------------------------
D|-------------------------------------------------------------------
A|---7-----7-----4-----4---------------------------------------------
E|------7-----7-----4------4-----------------------------------------


G|-------------------------------------------------------------------
D|-------------------------------------------------------------------
A|----7-7-----------7-7-----------4-4---------4-4--------------------
E|----------7-7-----------7-7-----------4-4--------4-4---------------






Wake Me Up When September Ends
-------------------------------

Chorus
|---------------------------------------|
|---------------------------------------|
|3333333333333333----------------2/10---|
|----------------3333333333333333-------| 


|-------------------------------9-------7---|
|-----12------------12-------9-------7------|
|10-10--10-10-10--99--999--77-77---55-55----|
|-------------------------------------------| 


|----------------------------------------|
|----------------------------------------|
|3333333333333333------------------------|
|----------------3333333333333333-2222---| 


|-------------------------------------------------------7--7-------|
|------------------------------------------------------------------|
|-------2222222-333333-----------------2222222-333333-55-55-5/10---|
|0000000--------------3-33-2-22-0000000----------------------------| 


|-------------------------------9-------7---|
|-----12------------12-------9-------7------|
|10-10--10-10-10--99--999--77-77---55-55----|
|-------------------------------------------| 


|-----------------------------------------|
|----------------------------------------|
|3333333333333333------------------------|
|----------------3333333333333333-2222---| 

Solo
|------------------------------------------------------7777777777777777777777777777777---|
|----------------------5-55-4-44---------------------------------------------------------|
|-------2222222-333333-----------------2222222-333333--5555555555555555555555555555555---|
|0000000------------------------0000000--------------------------------------------------| 

Guitar And Singing Only


G|---------------------------------------|
D|---------------------------------------|
A|3333333333333333----------------2/10---|
E|----------------3333333333333333-------| 







G|-------------------------------9-------7---|
D|-----12------------12-------9-------7------|
A|10-10--10-10-10--99--999--77-77---55-55----|
E|-------------------------------------------|

G|--------------------------------------|
D|--------------------------------------|
A|3333333333333333------------------0---|
E|----------------333333333333333-35----|









Minority
---------
This is one of my favourite Green Day songs.
You dont need to tune down like people say It dont make a difference.Made 
soem changes to the verse.


Chorus
|-----------------------|
|-----------------------|
|---3333----------------|
|-------1111-3333-1111--|

Verse
|--------------------------------------------------------|
|----2--3-2-0-----2-----------2--3-2-0-----2-3-2---------|
|---3--2-----3-2-3--2------2-3--2-----3-2-3-----------3--|
|-----3------------3-1-0-/3----3-----------------3-1-0---|

Bridge
|--------------------------------------------------------------------------------------|
|--------------------------------------------------------------------------------------|
|--------7-8888-3333-------------------------7-8888-3333----------------------------2--|
|--555555-----------555555-0-1111-3333-555555-----------555555-1-33-XX-33-XX-33-XX-3---|

Didn't add order just play with the song sounds exactly the same.





Boulevard Of Broken Dreams
---------------------------


Verse 

|---------------------------------|
|---------------------------------|
|------66-------------------------| X 5  
|-11/44--66-4\--------------------|


|---------------------------------|
|---------------------------------|
|------66-------------------------| X1
|-11/44--6666---------------------|

Chorus

|---------------------------------|
|---------------------------------|
|--4444----6666-------------------| 
|------4444----1111---------------|

|---------------------------------|
|---------------------------------|
|--4444---------------------------| 
|------4444-3333------------------|

Chorus 2
|---------------------------------|
|---------------------------------|
|--44----6666---------------------| 
|------44----1111-----------------|

|---------------------------------|
|---------------------------------|
|--44-----------------------------| 
|------44-3333--------------------|

Ending

|-----------------------------|-------------|
|-----------------------------|-------------|
|-----4-44-6-66-5-55----------|-------------|
|-1-11--------------4-44-0-00-|--44-00------|

Play this 4 times   Than add the 44-00
Pretty Easy just keep the beat steady .






 Good Riddance (Time Of Your Life)
---------------------------------------
 Good Riddance doesnt have any bass too it. But you can play this.
Didnt order it. Because theres not even bass in the song.

|---------------------------------------------|
|---------------------------------------------|
|----------------5-5555-7777------------------|
|--33-3333-3-3333-----------------------------|


|---------------------------------------------|
|---------------------------------------------|
|--77-7-77777--55-5-55--33-3------------------|
|----------------------------33333------------|


|------------------|------------------------|
|------------------|------------------------|
|------------------|-7-555-3333-------------|
|-00-0-000-33-3-333|------------------------|


thats it, enjoy it all
email me at@ xx-lil-retard-xx@hotmail.co.uk
Suggest correction
What's this?
You can suggest a correction to this tab. Community and Mods will review your correction and vote to approve or reject it.
comments
print report bad tab
6 comments total. Showing first comments.
0 reply
mathiaes 463 wrote on April 1 2007, 08:13 am

Dude, this is f*ckung great..I've been searching for the entire album for like forever

0 reply
zlaw 11 wrote on June 3 2007, 12:07 pm

Thats a great tab but i only have one problem all of the songs of dookie are tuned in flats if u watch them in concert they will have a break to switch guitars but good job

0 reply
NadiaReed 215 wrote on June 28 2007, 10:56 am

kk thanks i'll remember dat

guest
You may want to rate the tab now too:
select rating
Please do not post tabs as comments. Select "correction" instead!