Oops, an error
Loading. Please wait.

Burnout Bass Tab

version 1
version 1

Whole song

17,236 views 30 this week
1 commentread comment
1 2 3 4 5
x 10
add to favorites
launch autoscroll
font size
0
reset
guitar tuner
backing track
0:00
0:00
×
Best way to learn
"Burnout"
Autoscroll
slow
fast
+/-
esc
set tempo
stop
[Verse]
G|------------------------------------------------------------------|
D|---------------------------5--------------------------------------|
A|-------53-333-333------53-3------------5---------5-5-5555-55-5555-|
E|-3-3333----------3-3333-----1-1113-3333-1-111-111-----------------|

G|------------------------------------------------------------------|
D|---------------------------5--------------------------------------|
A|-------53-333-333------53-3------------5---------5-5-5555-555-555-|
E|-3-3333----------3-3333-----1-1113-3333-1-111-111-----------------|

[Chorus]
G|------------------------------------------------------------------|
D|-------5-------------------------------5--------------------------|
A|-3-3333----------3-33------------3-3333----------5-5-5555-55-5555-|
E|--------3-3330353----1-13-33-3333-------1-111-111-----------------|

[Verse]
G|------------------------------------------------------------------|
D|---------------------------5--------------------------------------|
A|-------53-333-333------53-3------------5---------5-5-5555-55-5555-|
E|-3-3333----------3-3333-----1-1113-3333-1-111-111-----------------|

G|------------------------------------------------------------------|
D|---------------------------5--------------------------------------|
A|-------53-333-333------53-3------------5---------5-5-5555-555-555-|
E|-3-3333----------3-3333-----1-1113-3333-1-111-111-----------------|

[Chorus 2]
G|------------------------------------------------------------------|
D|-------5-------------------------------5--------------------------|
A|-3%3-33----------3-33------------3-3333----------5-5-5555-555-555-|
E|--------3-3330353----1-13-3333333-------1-111-111-----------------|

G|------------------------------------------------------------------|
D|-------5-------------------------------5--------------------------|
A|-3%3-33----------3-33------------3-3333----------5-55555555555555-|
E|--------3-3330353----1-13-3333333-------1-111-111-----------------|

[Bridge]
G|---------------5-7*--7*-------x--------x--------x--------x-|
D|-------------57---------------x--------x--------x--------x-|
A|-555555555555-----------------x--------x--------x--------x-|
E|-------------------------33313x---33313x---33313x---33313x-|

[Chorus 2]
G|------------------------------------------------------------------|
D|-------5-------------------------------5--------------------------|
A|-3%3-33----------3-33------------3-3333----------5-5-5555-555-555-|
E|--------3-3330353----1-13-3333333-------1-111-111-----------------|

G|------------------------------------------------------------------|
D|-------5-------------------------------5--------------------------|
A|-3%3-33----------3-33------------3-3333----------5-55555555555555-|
E|--------3-3330353----1-13-3333333-------1-111-111-----------------|

[Outro]
G|---------------5-7*--7*--------|
D|-------------57----------------|
A|-555555555555------------------|
E|-------------------------33313-|


************************************

| x  Dead note
| *  Natural harmonic
 

************************************
Suggest correction
comments
print report bad tab
1 comment total.
0 reply
linkinguitaro 30 Nov 04, 2004 12:00 AM

funkay doh

guest
You may want to rate the tab now too:
select rating
Wanna post a correction for this tab? Suggest correction