Oops, an error
Loading. Please wait.

Burnout Tab

version 3
version 3

Whole song

Video

19,848 views 81 this week
3 commentsread comments
1 2 3 4 5
x 4
add to favorites
launch autoscroll
font size
0
reset
how to read this tab
guitar tuner
Autoscroll
slow
fast
+/-
esc
set tempo
stop
Help us to improve Ultimate-Guitar.com Take our survey!
×
Author
Difficulty
intermediate
Key:   x    - Muffled




Verse 1

eb|---------------------------------------------------------------------------|
Bb|---------------------------------------------------------------------------|
Gb|---------------5--5-5-5-5-5-5-5--------------5--5-5------------------------|
Db|--5--5-5-5-5-5-5--5-5-5-5-5-5-5-5--5-5-5-5-5-5--5-5-3--3-3--5--5-5-5-5-5---|
Ab|--5--5-5-5-5-5-3--3-3-3-3-3-3-3-5--5-5-5-5-5-3--3-3-3--3-3--5--5-5-5-5-5---|
Eb|--3--3-3-3-3-3------------------3--3-3-3-3-3--------1--1-1--3--3-3-3-3-3---|


eb|---------------------------------------------------------------------------|
Bb|---------------------------------------------------------------------------|
Gb|-------------------7--7-7-7-7-7--7-7-7-7-7-7-7-----------------------------|
Db|--3--3-3-3-3-3-3-3-7--7-7-7-7-7--7-7-7-7-7-7-7-----------------------------|
Ab|--3--3-3-3-3-3-3-3-5--5-5-5-5-5--5-5-5-5-5-5-5-----------------------------|
Eb|--1--1-1-1-1-1-1-1---------------------------------------------------------|


eb|---------------------------------------------------------------------------|
Bb|---------------------------------------------------------------------------|
Gb|---------------5--5-5-5-5-5-5-5--------------5--5-5------------------------|
Db|--5--5-5-5-5-5-5--5-5-5-5-5-5-5-5--5-5-5-5-5-5--5-5-3--3-3--5--5-5-5-5-5---|
Ab|--5--5-5-5-5-5-3--3-3-3-3-3-3-3-5--5-5-5-5-5-3--3-3-3--3-3--5--5-5-5-5-5---|
Eb|--3--3-3-3-3-3------------------3--3-3-3-3-3--------1--1-1--3--3-3-3-3-3---|


eb|---------------------------------------------------------------------------|
Bb|---------------------------------------------------------------------------|
Gb|-------------------7--7-7-7-7-7--7-7-7--7-7-7------------------------------|
Db|--3--3-3-3-3-3-3-3-7--7-7-7-7-7--7-7-7--7-7-7------------------------------|
Ab|--3--3-3-3-3-3-3-3-5--5-5-5-5-5--5-5-5--5-5-5------------------------------|
Eb|--1--1-1-1-1-1-1-1---------------------------------------------------------|



Chorus

eb|---------------------------------------------------------------------------|
Bb|---------------------------------------------------------------------------|
Gb|--5--5-5-5-5-5------------------5--5-5-------------------------------------|
Db|--5--5-5-5-5-5-5--5-5-5-5-5-5-5-5--5-5-3--3-3--5--5-5-5-5-5----------------|
Ab|--3--3-3-3-3-3-5--5-5-5-5-5-5-5-3--3-3-3--3-3--5--5-5-5-5-5----------------|
Eb|---------------3--3-3-3-3-3-3-3--------1--1-1--3--3-3-3-3-3----------------|


eb|---------------------------------------------------------------------------|
Bb|---------------------------------------------------------------------------|
Gb|--5--5-5-5-5-5------------------7--7-7-7-7-7--7-7-7--7-7-------------------|
Db|--5--5-5-5-5-5-3--3-3-3-3-3-3-3-7--7-7-7-7-7--7-7-7--7-7-------------------|
Ab|--3--3-3-3-3-3-3--3-3-3-3-3-3-3-5--5-5-5-5-5--5-5-5--5-5-------------------|
Eb|---------------1--1-1-1-1-1-1-1--------------------------------------------|



Verse 2

eb|---------------------------------------------------------------------------|
Bb|---------------------------------------------------------------------------|
Gb|---------------5--5-5-5-5-5-5-5--------------5--5-5------------------------|
Db|--5--5-5-5-5-5-5--5-5-5-5-5-5-5-5--5-5-5-5-5-5--5-5-3--3-3--5--5-5-5-5-5---|
Ab|--5--5-5-5-5-5-3--3-3-3-3-3-3-3-5--5-5-5-5-5-3--3-3-3--3-3--5--5-5-5-5-5---|
Eb|--3--3-3-3-3-3------------------3--3-3-3-3-3--------1--1-1--3--3-3-3-3-3---|


eb|---------------------------------------------------------------------------|
Bb|---------------------------------------------------------------------------|
Gb|-------------------7--7-7-7-7-7--7-7-7-7-7-7-7-----------------------------|
Db|--3--3-3-3-3-3-3-3-7--7-7-7-7-7--7-7-7-7-7-7-7-----------------------------|
Ab|--3--3-3-3-3-3-3-3-5--5-5-5-5-5--5-5-5-5-5-5-5-----------------------------|
Eb|--1--1-1-1-1-1-1-1---------------------------------------------------------|


eb|---------------------------------------------------------------------------|
Bb|---------------------------------------------------------------------------|
Gb|---------------5--5-5-5-5-5-5-5--------------5--5-5------------------------|
Db|--5--5-5-5-5-5-5--5-5-5-5-5-5-5-5--5-5-5-5-5-5--5-5-3--3-3--5--5-5-5-5-5---|
Ab|--5--5-5-5-5-5-3--3-3-3-3-3-3-3-5--5-5-5-5-5-3--3-3-3--3-3--5--5-5-5-5-5---|
Eb|--3--3-3-3-3-3------------------3--3-3-3-3-3--------1--1-1--3--3-3-3-3-3---|


eb|---------------------------------------------------------------------------|
Bb|---------------------------------------------------------------------------|
Gb|-------------------7--7-7-7-7-7--7-7-7--7-7-7------------------------------|
Db|--3--3-3-3-3-3-3-3-7--7-7-7-7-7--7-7-7--7-7-7------------------------------|
Ab|--3--3-3-3-3-3-3-3-5--5-5-5-5-5--5-5-5--5-5-5------------------------------|
Eb|--1--1-1-1-1-1-1-1---------------------------------------------------------|



Chorus

eb|---------------------------------------------------------------------------|
Bb|---------------------------------------------------------------------------|
Gb|--5--5-5-5-5-5------------------5--5-5-------------------------------------|
Db|--5--5-5-5-5-5-5--5-5-5-5-5-5-5-5--5-5-3--3-3--5--5-5-5-5-5----------------|
Ab|--3--3-3-3-3-3-5--5-5-5-5-5-5-5-3--3-3-3--3-3--5--5-5-5-5-5----------------|
Eb|---------------3--3-3-3-3-3-3-3--------1--1-1--3--3-3-3-3-3----------------|


eb|---------------------------------------------------------------------------|
Bb|---------------------------------------------------------------------------|
Gb|--5--5-5-5-5-5------------------7--7-7-7-7-7--7-7-7--7-7-------------------|
Db|--5--5-5-5-5-5-3--3-3-3-3-3-3-3-7--7-7-7-7-7--7-7-7--7-7-------------------|
Ab|--3--3-3-3-3-3-3--3-3-3-3-3-3-3-5--5-5-5-5-5--5-5-5--5-5-------------------|
Eb|---------------1--1-1-1-1-1-1-1--------------------------------------------|


eb|---------------------------------------------------------------------------|
Bb|---------------------------------------------------------------------------|
Gb|--5--5-5-5-5-5------------------5--5-5-------------------------------------|
Db|--5--5-5-5-5-5-5--5-5-5-5-5-5-5-5--5-5-3--3-3--5--5-5-5-5-5----------------|
Ab|--3--3-3-3-3-3-5--5-5-5-5-5-5-5-3--3-3-3--3-3--5--5-5-5-5-5----------------|
Eb|---------------3--3-3-3-3-3-3-3--------1--1-1--3--3-3-3-3-3----------------|


eb|---------------------------------------------------------------------------|
Bb|---------------------------------------------------------------------------|
Gb|--5--5-5-5-5-5------------------7--7-7-7-7-7-7-7-7-7-7-7-7-7-7-------------|
Db|--5--5-5-5-5-5-3--3-3-3-3-3-3-3-7--7-7-7-7-7-7-7-7-7-7-7-7-7-7-------------|
Ab|--3--3-3-3-3-3-3--3-3-3-3-3-3-3-5--5-5-5-5-5-5-5-5-5-5-5-5-5-5-------------|
Eb|---------------1--1-1-1-1-1-1-1--------------------------------------------|


eb|---------------------------------------------------------------------------|
Bb|------------------------------7-7-7-7-7-7-7-7-8-8-8-8-8-8-8-8--------------|
Gb|--7-7-7-7-7-7-7-7-7-7-7-7-7-7-x-x-x-x-x-x-x-x-x-x-x-x-x-x-x-x--------------|
Db|--7-7-7-7-7-7-7-7-7-7-7-7-7-7-0-0-0-0-0-0-0-0-0-0-0-0-0-0-0-0--------------|
Ab|--5-5-5-5-5-5-5-5-5-5-5-5-5-5----------------------------------------------|
Eb|---------------------------------------------------------------------------|


eb|---------------------------------------------------------------------------|
Bb|--10-10-10-10-10-10-10-10-10-10-10-10-10-10--------------------------------|
Gb|---x--x--x--x--x--x--x--x--x--x--x--x--x--x--------------------------------|
Db|---0--0--0--0--0--0--0--0--0--0--0--0--0--0--------------------------------|
Ab|---------------------------------------------------------------------------|
Eb|---------------------------------------------------------------------------|



Bridge

eb|---------------------------------------------------------------------------|
Bb|---------------------------------------------------------------------------|
Gb|---------------------------------------------------------------------------|
Db|--5-5-5-3--5----5-5-5-3--5----5-5-5-3--5----5-5-5-3--5---------------------|
Ab|--5-5-5-3--5----5-5-5-3--5----5-5-5-3--5----5-5-5-3--5---------------------|
Eb|--3-3-3-1--3----3-3-3-1--3----3-3-3-1--3----3-3-3-1--3---------------------|



Chorus

eb|---------------------------------------------------------------------------|
Bb|---------------------------------------------------------------------------|
Gb|--5--5-5-5------------------5--5-5-----------------------------------------|
Db|--5--5-5-5-5--5-5-5-5-5-5-5-5--5-5-3--3-3--5--5-5-5-5-5--------------------|
Ab|--3--3-3-3-5--5-5-5-5-5-5-5-3--3-3-3--3-3--5--5-5-5-5-5--------------------|
Eb|-----------3--3-3-3-3-3-3-3--------1--1-1--3--3-3-3-3-3--------------------|


eb|---------------------------------------------------------------------------|
Bb|---------------------------------------------------------------------------|
Gb|--5--5-5-5-5-5------------------7--7-7-7-7-7--7-7-7--7-7-------------------|
Db|--5--5-5-5-5-5-3--3-3-3-3-3-3-3-7--7-7-7-7-7--7-7-7--7-7-------------------|
Ab|--3--3-3-3-3-3-3--3-3-3-3-3-3-3-5--5-5-5-5-5--5-5-5--5-5-------------------|
Eb|---------------1--1-1-1-1-1-1-1--------------------------------------------|


eb|---------------------------------------------------------------------------|
Bb|---------------------------------------------------------------------------|
Gb|--5--5-5-5-5-5------------------5--5-5-------------------------------------|
Db|--5--5-5-5-5-5-5--5-5-5-5-5-5-5-5--5-5-3--3-3--5--5-5-5-5-5----------------|
Ab|--3--3-3-3-3-3-5--5-5-5-5-5-5-5-3--3-3-3--3-3--5--5-5-5-5-5----------------|
Eb|---------------3--3-3-3-3-3-3-3--------1--1-1--3--3-3-3-3-3----------------|


eb|---------------------------------------------------------------------------|
Bb|---------------------------------------------------------------------------|
Gb|--5--5-5-5-5-5------------------7--7-7-7-7-7-7-7-7-7-7-7-7-7-7-------------|
Db|--5--5-5-5-5-5-3--3-3-3-3-3-3-3-7--7-7-7-7-7-7-7-7-7-7-7-7-7-7-------------|
Ab|--3--3-3-3-3-3-3--3-3-3-3-3-3-3-5--5-5-5-5-5-5-5-5-5-5-5-5-5-5-------------|
Eb|---------------1--1-1-1-1-1-1-1--------------------------------------------|


eb|---------------------------------------------------------------------------|
Bb|------------------------------7-7-7-7-7-7-7-7-8-8-8-8-8-8-8-8--------------|
Gb|--7-7-7-7-7-7-7-7-7-7-7-7-7-7-x-x-x-x-x-x-x-x-x-x-x-x-x-x-x-x--------------|
Db|--7-7-7-7-7-7-7-7-7-7-7-7-7-7-0-0-0-0-0-0-0-0-0-0-0-0-0-0-0-0--------------|
Ab|--5-5-5-5-5-5-5-5-5-5-5-5-5-5----------------------------------------------|
Eb|---------------------------------------------------------------------------|


eb|---------------------------------------------------------------------------|
Bb|--10-10-10-10-10-10-10-10-10-10-10-10-10-10--------------------------------|
Gb|---x--x--x--x--x--x--x--x--x--x--x--x--x--x--------------------------------|
Db|---0--0--0--0--0--0--0--0--0--0--0--0--0--0--------------------------------|
Ab|---------------------------------------------------------------------------|
Eb|---------------------------------------------------------------------------|


Outro

eb|---------------------------------------------------------------------------|
Bb|---------------------------------------------------------------------------|
Gb|---------------------------------------------------------------------------|
Db|--5-5-5-3--5---------------------------------------------------------------|
Ab|--5-5-5-3--5---------------------------------------------------------------|
Eb|--3-3-3-1--3---------------------------------------------------------------|


Suggest correction
comments
print report bad tab
3 comments total.
0 reply
Insomniac_123 261 Apr 18, 2009 03:55 AM

You cheat! This is from Green Day Authority!!

0 reply
davidrf 90 Feb 13, 2014 03:00 PM

this is pretty wrong

0 reply
diamond.and.golden 10 Jun 14, 2016 08:53 PM

guest
You may want to rate the tab now too:
select rating
Wanna post a correction for this tab? Suggest correction