Oops, an error
Loading. Please wait.

Carpe Diem Bass Tab

version 1
version 1

Whole song

Interactive

2,284 views 6 this week
no commentswrite comment
1 2 3 4 5
accurate
x 3
add to favorites
launch autoscroll
font size
0
reset
guitar tuner
Autoscroll
slow
fast
+/-
esc
set tempo
stop
Help us to improve Ultimate-Guitar.com Take our survey!
×
Intro

G|----------------------------------------|
D|-----------------------------0-6-4------|
A|4-44-44--------4-4---4-44-44-------4-4--| x2
E|---------0-2-4-----4------------------4-|


Verse

G|-----------------------------|
D|---------------------66-66666|
A|-4-----4-----4-----4---------| x4
E|4-----4-----4-----4----------|


Pre-chorus

G|----------------------------------------|
D|---66-66666---66-66666---66-666666666666|
A|-4----------4----------4----------------|
E|4----------4----------4-----------------|


Chorus

G|----------------------------------------|
D|-----------------------------0-6-4------|
A|4-44-44--------4-4---4-44-44-------4-4--| x2
E|---------0-2-4-----4------------------4-|


Post-Chorus

G|------------------------------------------------------------|
D|-------------------------------------44444444---------------|
A|---------44444444----------444/89864----------44444444------|
E|22222222----------22222222----------------------------------|

G|----------------|
D|----------------|
A|----------------|
E|44-044-04444----|


Verse

G|-----------------------------|
D|---------------------66-66666|
A|-4-----4-----4-----4---------| x4
E|4-----4-----4-----4----------|


Pre-Chorus

G|----------------------------------------|
D|---66-66666---66-66666---66-666666666666|
A|-4----------4----------4----------------|
E|4----------4----------4-----------------|


Chorus

G|----------------------------------------|
D|-----------------------------0-6-4------|
A|4-44-44--------4-4---4-44-44-------4-4--| x2
E|---------0-2-4-----4------------------4-|


Post-Chorus
G|------------------------------------------------------------|
D|-------------------------------------44444444---------------|
A|---------44444444----------444/89864----------44444444------|
E|22222222----------22222222----------------------------------|

G|----------------|
D|----------------|
A|----------------|
E|44-044-04444----|


Bridge

G|----------------------------------------|
D|-----------------------------0-6-4------|
A|4-44-44--------4-4---4-44-44-------4-4--| x2
E|---------0-2-4-----4------------------4-|

G|------------------------------------------------------------|
D|------------------------------------------------------------|
A|---------444/89864-999888666444333111----------4444444------|
E|22222222------------------------------22222222--------------|

G|----------------|
D|----------------|
A|----------------|
E|44-044-04444----|

G|------------------------------------------|
D|-------------------------------------6-4--|
A|4---(guitar-only)-44---(guitar-only)-----4|
E|------------------------------------------|


Chorus

G|----------------------------------------|    ||                 G|--------|
D|-----------------------------0-6-4------|    ||                 D|0-6-4---|
A|4-44-44--------4-4---4-44-44-------4-4--| x4 || Last chorus End A|------4-|
E|---------0-2-4-----4------------------4-|    ||                 E|--------|
Suggest correction
Give kudos to tab author, rate the tab!
1 2 3 4 5
comments
print report bad tab
guest
You may want to rate the tab now too:
select rating
Wanna post a correction for this tab? Suggest correction