Oops, an error
Loading. Please wait.

Carpe Diem Tab

version 3
version 3

Whole song

Interactive

9,697 views 9 this week
3 commentsread comments
1 2 3 4 5
accurate
x 16
add to favorites
launch autoscroll
font size
0
reset
how to read this tab
guitar tuner
Autoscroll
slow
fast
+/-
esc
set tempo
stop
Help us to improve Ultimate-Guitar.com Take our survey!
×
Author
Difficulty
intermediate
-------------------------------------------------------------------------------
                             Carpe Diem - Green Day
-------------------------------------------------------------------------------
Tabbed by: Hevensnow
E-mail: hevensnow@yahoo.com

Tuning: Standerd
INTRO
e|--------------------------------------------------------------------------------|
B|--------------------------------------------------------------------------------|
G|-6-6-6-6-6-6------6--6-6-6-6-6-6-----6-------------------------------6----------|
D|-6-6-6-6-6-6--4-6-6--6-6-6-6-6-6-6-6-6-PLAY THIS TWICE THAN THIS-4-6-6----------|
A|-4-4-4-4-4-4--4-6-4--4-4-4-4-4-4-6-6-4---------------------------4-6-4----------|
E|--------------2-4----------------4-4-----------------------------2-4------------|
VERSE
e|--------------------------------------------------------------------------------|
B|--------------------------------------------------------------------------------|
G|---6----6----6--6------------------------4-----4--------------------------------|
D|-6-6--6-6--6-6--6-6-6~~~-----------------4-4-4-4-4-4~~~-4-4-4-4-4-4-4-4-4-------|
A|-6-4--6-4--6-4--4-6-6~~~-X4 THAN THIS----6-4-4-6-4-4~~~-4-4-4-4-4-4-4-4-4-------|
E|-4----4----4------4-4----------------------6-6---6-6~~~-6-6-6-6-6-6-6-6-6-------|
CHORUS 
e|--------------------------------------------------------------------------------|
B|--------------------------------------------------------------------------------|
G|-6-6-6-6-6-6-----6--6-6-6-6-6-6-----6-------------------------------------------|
D|-6-6-6-6-6-6-4-6-6--6-6-6-6-6-6-6-6-6-[X2}-4-4-4-4-4-4-4-4-6-6-6-6-6-6-6-6------|
A|-4-4-4-4-4-4-4-6-4--4-4-4-4-4-4-6-6-4------4-4-4-4-4-4-4-4-6-6-6-6-6-6-6-6-[X3]-|
E|-------------2-4----------------4-2--------2-2-2-2-2-2-2-2-4-4-4-4-4-4-4-4------|

e|--------------------------|
B|--------------------------|
G|--------------------------|
D|-6-6---6-6---6-6---6-6----|
A|-6-6---6-6---6-6---6-6----|
E|-4-4---4-4---4-4---4-4----|

VERSE
e|--------------------------------------------------------------------------------|
B|--------------------------------------------------------------------------------|
G|---6----6----6--6------------------------4-----4--------------------------------|
D|-6-6--6-6--6-6--6-6-6~~~-----------------4-4-4-4-4-4~~~-4-4-4-4-4-4-4-4-4-------|
A|-6-4--6-4--6-4--4-6-6~~~-X4 THAN THIS----6-4-4-6-4-4~~~-4-4-4-4-4-4-4-4-4-------|
E|-4----4----4------4-4----------------------6-6---6-6~~~-6-6-6-6-6-6-6-6-6-------|

CHORUS 
e|--------------------------------------------------------------------------------|
B|--------------------------------------------------------------------------------|
G|-6-6-6-6-6-6-----6--6-6-6-6-6-6-----6-------------------------------------------|
D|-6-6-6-6-6-6-4-6-6--6-6-6-6-6-6-6-4-6-[X2}-4-4-4-4-4-4-4-4-6-6-6-6-6-6-6-6------|
A|-4-4-4-4-4-4-4-6-4--4-4-4-4-4-4-6-4-4------4-4-4-4-4-4-4-4-6-6-6-6-6-6-6-6-[X3]-|
E|-------------2-4----------------4-2--------2-2-2-2-2-2-2-2-4-4-4-4-4-4-4-4------|

e|--------------------------|
B|--------------------------|
G|--------------------------|
D|-6-6---6-6---6-6---6-6----|
A|-6-6---6-6---6-6---6-6----|
E|-4-4---4-4---4-4---4-4----|

SOLO
e|-----------------------------------------------------------------------------------|
B|----9----9----9---9---9---9---13b--------------------------------------11b-11b-13b-|
G|-11b--11b--11b----11b-11b-11b-------11b-11b-11b-11b-10-----11b-11b-11b-------------|
D|-------------------------------------------------------11--------------------------|
A|-----------------------------------------------------------------------------------|
E|-----------------------------------------------------------------------------------|

e|-----------------------------|
B|-----------------------------|
G|-11b-11b-11b-11b-10----------|
D|--------------------11~~~----|
A------------------------------|
E|-----------------------------|

VERSE
e|----------------------------------------------------------|
B|----------------------------------------------------------|
G|----------------------------------------------------------|
D|-4-4-4-4-4-4-4-4-6-6-6-6-6-6-6-6-------6-6--6-6--6-6--6-6-|
A|-4-4-4-4-4-4-4-4-6-6-6-6-6-6-6-6-[x3]--6-6--6-6--6-6--6-6-|
E|-2-2-2-2-2-2-2-2-4-4-4-4-4-4-4-4-------4-4--4-4--4-4--4-4-|
   * * * * * * * * * * * * * * * *
e|---------------------------------------------------------------------------------------|
B|---------------------------------------------------------------------------------------|
G|-6-6-6-6-6-6------6--6-6-6-6-6-6-------6-6~~~--6-6-6-6-6-6--------6--6-6-6-6-6-6-----6-|
D|-6-6-6-6-6-6--4-6-6--6-6-6-6-6-6-6-4---6-6~~~--6-6-6-6-6-6--4--6--6--6-6-6-6-6-6-4-6-6-|
A|-4-4-4-4-4-4--4-6-4--4-4-4-4-4-4-6-4---4-4~~~--4-4-4-4-4-4--4--6--4--4-4-4-4-4-4-4-6-4-|
E|--------------2-4----------------4-2------------------------2--4-----------------2-4---|

OUTRO
e|---------------------------------------------------------------------------------|
VB|---------------------------------------------------------------------------------|
G|-6-6-6-6-6-6-----6--6-6-6-6-6-6-----4------6-6-6-6-6-6-----6---6-6-6-6-6-6-----6-|
D|-6-6-6-6-6-6-4-6-6--6-6-6-6-6-6-6-4-4-[X3}-6-6-6-6-6-6-4-6-6---6-6-6-6-6-6-6-4-6-|
A|-4-4-4-4-4-4-4-6-4--4-4-4-4-4-4-6-4-6------4-4-4-4-4-4-4-6-4---4-4-4-4-4-4-6-4-4-|
E|-------------2-4----------------4-2--------------------2-4-----------------4-2---|



************************************

| /   slide up
| \   slide down
| h   hammer-on
| p   pull-off
| ~   vibrato
| +   harmonic
| x   Mute note
| b   Bend
| pb  Pre-bend
| br  Bend release
| pbr Pre-bend release
| brb Bend release bend

************************************
Suggest correction
What's this?
You can suggest a correction to this tab. Community and Mods will review your correction and vote to approve or reject it.
comments
print report bad tab
3 comments total.
0 reply
gdkid2010 94 wrote on January 30 2013, 10:20 am

How does this have 5 stars? It isn't even close.

0 reply
Lunaraven 15 wrote on March 27 2013, 10:32 am

Ummm can you spell? *THEN

0 reply
SimounZon 332 wrote on May 16 2013, 01:58 am

e|-----------------------------|
B|-----------------------------|
G|---------6-6-6-6-6-6-----6---|
D|---------6-6-6-6-6-6-6-4-6---|
A|---------4-4-4-4-4-4-6-4-4---|
E|---------------------4-4-----|

in the second repeat of the intro i think this is the way they play it..

guest
You may want to rate the tab now too:
select rating
Please do not post tabs as comments. Select "correction" instead!