Oops, an error
Loading. Please wait.

Carpe Diem Tab

version 4
version 4

Whole song

Interactive

844 views 1 this week
no commentswrite comment
1 2 3 4 5
accurate
x 3
add to favorites
launch autoscroll
font size
0
reset
how to read this tab
guitar tuner
Tab Pro tools
  • play this tab
  • loop segment
  • change instrument
  • show fretboard
  • metronome
×
Best way to learn
"Carpe Diem"
Autoscroll
slow
fast
+/-
esc
set tempo
stop
Contributor
Difficulty
intermediate
Artist: Green Day
Album: ¡UNO!
Song: Carpe Diem
Instrument: Guitar
Submitter: GuitarPunk94

Feel free to rate + comment! Join the GreenDayCommunity(GDC) :-)

Standard Tuning


Key:
-  - Nothing
.  - Palm mute
~  - Let notes ring
11b - Bend string
x  - Mute strings
/ - Slide up or down



 Intro:
|------------|------------|------------|------------|
|------------|------------|------------|------------|
|-6-----6-6--|---6-6-----6|-6-----6----|------------|
|-6-4-6-6-6-6|-4-6-6-4-6-6|-6-6-4-6----|------------|
|-4-4-6-4-4-6|-4-4-4-4-6-4|-4-6-4-4----|------------|
|---2-4-----4|-2-----2-4--|---4-2------|------------|

 Verse 1:
 |2x********************************************|
|------------|------------|------------|------------|
|------------|------------|------------|------------|
|---6-6---6-6|---6-6-6----|-6-6---6-6--|-6-6-6------|
|-6-6-6-6-6-6|-6-6-6-6-6-6|-6-6-6-6-6-6|-6-6-6-6----|
|-6-4-4-6-4-4|-6-4-4-4-6-6|-4-4-6-4-4-6|-4-4-4-6----|
|-4-----4----|-4-------4-4|-----4-----4|-------4----|
      .     .      .          .     .      .
 
 Chorus:
|------------|------------|------------|------------|
|------------|------------|------------|------------|
|-6---6----6-|----6-6-----|6-6-----6-6-|----6-------|
|-6-6-6-6--6-|4-6-6-6-6-4-|6-6-4-6-6-6-|6-4-6-------|
|-4-6-4-6--4-|4-6-4-4-6-4-|4-4-4-6-4-4-|6-4-4-------|
|---4---4----|2-4-----4-2-|----2-4-----|4-2---------|

 Bridge:
|------------|-------------|-------------|------------|
|------------|-------------|-------------|------------|
|---6-66/8656|---6-66/86810|-11-6--------|------------|
|-4-6-xxxxxxx|-4-6-xxxxxxx-|-x--6-6------|------------|
|-4-4-44/6434|-4-4-44/6468-|-9--4-6------|------------|
|-2----------|-2-----------|------4------|------------|

 Verse 2:
 |2x********************************************|
|------------|------------|------------|------------|
|------------|------------|------------|------------|
|---6-6---6-6|---6-6-6----|-6-6---6-6--|-6-6-6------|
|-6-6-6-6-6-6|-6-6-6-6-6-6|-6-6-6-6-6-6|-6-6-6-6----|
|-6-4-4-6-4-4|-6-4-4-4-6-6|-4-4-6-4-4-6|-4-4-4-6----|
|-4-----4----|-4-------4-4|-----4-----4|-------4----|
      .     .      .          .     .      .
 
 Chorus:
|------------|------------|------------|------------|
|------------|------------|------------|------------|
|-6---6----6-|----6-6-----|6-6-----6-6-|----6-------|
|-6-6-6-6--6-|4-6-6-6-6-4-|6-6-4-6-6-6-|6-4-6-------|
|-4-6-4-6--4-|4-6-4-4-6-4-|4-4-4-6-4-4-|6-4-4-------|
|---4---4----|2-4-----4-2-|----2-4-----|4-2---------|

 Bridge:
|------------|-------------|-------------|------------|
|------------|-------------|-------------|------------|
|---6-66/8656|---6-66/86810|-11-6--------|------------|
|-4-6-xxxxxxx|-4-6-xxxxxxx-|-x--6-6------|------------|
|-4-4-44/6434|-4-4-44/6468-|-9--4-6------|------------|
|-2----------|-2-----------|------4------|------------|

 Solo:
|------------|------------|------------|--------------|
|-9---12b-9--|9--9------9-|---12b-12-12|b-9---9--9----|
|-11b-----11b|11-10-----11|b-----------|--11b-11-10---|
|------------|------11----|------------|------------11|
|------------|------------|------------|--------------|
|------------|------------|------------|--------------|

 Bridge:
|------------|------------|------------|------------|
|------------|------------|---6--------|------------|
|------------|-----------6|8686-11~11\6|6-----------|
|-4/11-11-13-|11-10-11-4-6|6666-x~-x\-6|6-6---------|
|-xxx--------|---------4-4|4444-9~-9\-4|4-6---------|
|-2/9~-------|---------2--|------------|--4---------|
                       . . ....       .

 Intro: 
|------------|------------|------------|------------|
|------------|------------|------------|------------|
|-6-----6-6--|---666-----6|-6-----6----|------------|
|-6-4-6-6-6-6|-4-666-4-6-6|-6-6-4-6----|------------|
|-4-4-6-4-4-6|-4-444-4-6-4|-4-6-4-4----|------------|
|---2-4-----4|-2-----2-4--|---4-2------|------------|

 Chorus:
 |2x*******************************|
|------------|------------|------------|------------|
|------------|------------|------------|------------|
|-6-----6-6--|---6-6-----6|-6-----6----|------------|
|-6-4-6-6-6-6|-4-6-6-4-6-6|-6-6-4-6----|------------|
|-4-4-6-4-4-6|-4-4-4-4-6-4|-4-6-4-4----|------------|
|---2-4-----4|-2-----2-4--|---4-2------|------------|
comments
We did not receive enough feedback on this tab! Please rate:
print report bad tab
1 2 3 4 5
I want to post or [tab]
guest
You may want to rate the tab now too:
select rating
Please do not post tabs as comments. Select "correction" instead!