Oops, an error
Loading. Please wait.

Castaway Tab

version 6
version 6

Interactive

582 views 6 this week
1 commentread comment
1 2 3 4 5
please rate
add to favorites
launch autoscroll
font size
0
reset
how to read this tab
guitar tuner
Autoscroll
slow
fast
+/-
esc
set tempo
stop
Help us to improve Ultimate-Guitar.com Take our survey!
×
Difficulty
novice
                                                               WAITING
------------------------------------------------------------------------------------
Tuning Standard

Intro
e|---------------------------------------------------------------|
B|---------------------------------------------------------------|
G|---------------6-6-6-6-6-6-----------------6-6-6-6-6-6---------|
D|-6-6-6-6-6-6---6-6-6-6-6-6---8-8-8-8-8-8---6-6-6-6-6-6---------|  
A|-6-6-6-6-6-6---4-4-4-4-4-4---8-8-8-8-8-8---4-4-4-4-4-4---------|  
E|-4-4-4-4-4-4-----------------6-6-6-6-6-6-----------------------|

Verse   

e|---------------------------------------------------------------|
B|---------------------------------------------------------------|
G|---------------6-6-6-6-6-6-6----------------6-6-6-6-6-6-6------|
D|-6-6-6-6-6-6---6-6-6-6-6-6-6--8-8-8-8-8-8---6-6-6-6-6-6-6------|  
A|-6-6-6-6-6-6---4-4-4-4-4-4-4--8-8-8-8-8-8---4-4-4-4-4-4-4------|  
E|-4-4-4-4-4-4------------------6-6-6-6-6-6----------------------|

Chorus
e|---------------------------------------------------------------|
B|---------------------------------------------------------------|
G|---------------------------------------------------------------|
D|-3-3-3-3-3-3---2-2-2-2-2-2---6-6-6-6-6-6---8-8-8-8-8-8-8-------|
A|-3-3-3-3-3-3---2-2-2-2-2-2---6-6-6-6-6-6---8-8-8-8-8-8-8-------|
E|-1-1-1-1-1-1---0-0-0-0-0-0---4-4-4-4-4-4---6-6-6-6-6-6-6-------|

Bridge
e|---------------------------------------------------------------|
B|---------------------------------------------------------------|
G|-6-6-6-----------6-6-6-----------------------------------------|
D|-6-6-6---6-6-6---6-6-6-----------------------------------------|
A|-4-4-4---6-6-6---4-4-4-----------------------------------------|
E|---------4-4-4-------------------------------------------------|

Play verse 1 again
Play chorus again

Bridge 2
e|------------------------------------------|
B|------------------------------------------|
G|-6-6-6---------6-6-6---------6---6--------|
D|-6-6-6--6-6-6--6-6-6--6-6-6--6-6-6-6--(X3)|
A|-4-4-4--6-6-6--4-4-4--6-6-6--4-6-4-6------|
E|--------4-4-4---------4-4-4----4---4------|

Solo 

E|----------------------------------------------------------1---------4---|
B|------------------------------------------------------3-----3-----1-----|
G|--8-5b--3-5-6-5-3--8-5b--3-5-6-5-3--5-1--3-5-6-5-3--3---3-----3-1-------|
D|------------------------------------------------------------------------|
A|------------------------------------------------------------------------|
E|------------------------------------------------------------------------|

E|--------9----12-9------------9----12-9----------9----12-9-------------|
B|-----10---10------10------10---10------10----10---10------10----------|
G|--11-------------------10------------------9------------------7/3-----|
D|----------------------------------------------------------------------|
A|----------------------------------------------------------------------|
E|----------------------------------------------------------------------|

Play Bridge 2 again

e|---------------------------------------------------------------|
B|---------------------------------------------------------------|
G|---------------6-6-6-6-6-6-----------------6-6-6-6-6-6---------|
D|-6-6-6-6-6-6---6-6-6-6-6-6---8-8-8-8-8-8---6-6-6-6-6-6---------| x2 
A|-6-6-6-6-6-6---4-4-4-4-4-4---8-8-8-8-8-8---4-4-4-4-4-4---------|  
E|-4-4-4-4-4-4-----------------6-6-6-6-6-6-----------------------|


End
e|---------------------------------------------------------------|
B|---------------------------------------------------------------|
G|---------------6-6-6-6-6-6-6----------------6~~~---------------|
D|-6-6-6-6-6-6---6-6-6-6-6-6-6--8-8-8-8-8-8---6~~~---------------|
A|-6-6-6-6-6-6---4-4-4-4-4-4-4--8-8-8-8-8-8---4~~~---------------|
E|-4-4-4-4-4-4------------------6-6-6-6-6-6----------------------|
Suggest correction
What's this?
You can suggest a correction to this tab. Community and Mods will review your correction and vote to approve or reject it.
comments
We did not receive enough feedback on this tab! Please rate:
print report bad tab
1 2 3 4 5
1 comment total.
0 reply
offspring_punk 1,284 wrote on October 1 2010, 10:23 am

This isn't even Castaway...It's Waiting. How the **** do the mods let this get by?

guest
You may want to rate the tab now too:
select rating
Please do not post tabs as comments. Select "correction" instead!