Oops, an error
Loading. Please wait.

Christians Inferno Tab

version 1
version 1

Whole song

Interactive

25,094 views 21 this week
4 commentsread comments
1 2 3 4 5
excellent!
x 15
add to favorites
launch autoscroll
font size
0
reset
how to read this tab
guitar tuner
Autoscroll
slow
fast
+/-
esc
set tempo
stop
Help us to improve Ultimate-Guitar.com Take our survey!
×
Author
-------------------------------------------------------------------------------
                        Christian's Inferno-Green Day
-------------------------------------------------------------------------------
Tabbed by:Stjimmy34
Tuning:Standard

The changes in this song were annoying to tab

Intro
e|---------------------------------------------------------------------------|
B|---------------------------------------------------------------------------|
G|---------------------------------------------------------------------------|
D|--------------------------------------(x2)---------------------------------|
A|-222222222222222----------33333333-----------------------------------------|
E|-----------------33333333--------------------------------------------------|

Verse 
e|---------------------------------------------------------------------------|
B|---------------------------------------------------------------------------|
G|---------------------------------------------------------------------------|
D|--------------------------------------(x3)---------------------------------|
A|-222222222222222----------33333333-----------------------------------------|
E|-----------------33333333--------------------------------------------------|

e|---------------------------------------------------------------------------|
B|---------------------------------------------------------------------------|
G|---------------------------------------------------------------------------|
D|--------------------------7-7-7-7-7-7-7-7----------------------------------|
A|-222222222222222----------7-7-7-7-7-7-7-7----------------------------------|
E|-----------------33333333-5-5-5-5-5-5-5-5----------------------------------|

Chorus X4
e|---------------------------------------------------------------------------|
B|---------------------------------------------------------------------------|
G|-77777777----------77777777------------------------------------------------|
D|-77777777-77777777-77777777-55555555---------------------------------------|
A|-55555555-77777777-55555555-55555555---------------------------------------|
E|----------55555555----------33333333---------------------------------------|

Pre-Verse (x2)

Guitar 1
e|---------------------------------------------------------------------------|
B|---------------------------------------------------------------------------|
G|-444444444444444----------55555555-----------------------------------------|
D|-444444444444444-55555555-55555555-----------------------------------------|
A|-222222222222222-55555555-33333333-----------------------------------------|
E|-----------------33333333--------------------------------------------------|

Guitar 2
e|---------------------------------------------------------------------------|
B|---------------------------------------------------------------------------|
G|---------------------------------------------------------------------------|
D|---------------------------------------------------------------------------|
A|-222222222222222----------33333333-----------------------------------------|
E|-----------------33333333--------------------------------------------------|

Verse
Chorus

Solo

Guitar 1
e|-7---7---7---7---7---7---8---8-10------------------------------------------|
B|---7---7---7---7---7---7---8-----------------------------------------------|
G|---------------------------------------------------------------------------|
D|---------------------------------------------------------------------------|
A|---------------------------------------------------------------------------|
E|---------------------------------------------------------------------------|

e|-7---7---7---7---7---7---8---8-10------7~----------------------------------|
B|---7---7---7---7---7---7---8------(x3)-------------------------------------|
G|---------------------------------------------------------------------------|
D|---------------------------------------------------------------------------|
A|---------------------------------------------------------------------------|
E|---------------------------------------------------------------------------|

Guitar 2
e|---------------------------------|----------------------------------------------|
B|---------------------------------|----------------------------------------------|
G|-44444444-99999999-5555-10101010-|----------------------------------------------|
D|-44444444-99999999-5555-10101010-|-4444444444444444-99999999-5555-10101010-(x3)-|
A|-22222222-77777777-3333-8-8-8-8--|-2222222222222222-77777777-3333-8-8-8-8-------|
E|---------------------------------|----------------------------------------------|

Chorus
e|------------------------------------------|---------------------------------|
B|------------------------------------------|---------------------------------|
G|-77777777----------77777777---------------|-77777777------------------------|
D|-77777777-77777777-77777777-55555555-(X3)-|-77777777------------------------|
A|-55555555-77777777-55555555-55555555------|-55555555------------------------|
E|----------55555555----------33333333------|---------------------------------|

Outro
e|------------------------------------------------------------------------------|
B|------------------------------------------------------------------------------|
G|-1212121212121212-1010101010101010------1212121212121212--1212-1414-1212-1414-|
D|-1212121212121212-1010101010101010-(x4)-1212121212121212--1212-1414-1212-1414-|
A|-1010101010101010-8-8-8-8-8-8-8-8-------1010101010101010--1010-1212-1010-1212-|
E|------------------------------------------------------------------------------|

e|---------------------------------------------------------------------------|
B|---------------------------------------------------------------------------|
G|---------------------------------------------------------------------------|
D|-9~------------------------------------------------------------------------|
A|-9~------------------------------------------------------------------------|
E|-7~------------------------------------------------------------------------|


| /  slide up
| \  slide down
| h  hammer-on
| p  pull-off
| ~  vibrato
| +  harmonic
| x  Mute note
===============================================================================
Suggest correction
comments
print report bad tab
4 comments total. Showing first comments.
+1 reply
Emo_Blood 10 wrote on May 21 2009, 06:25 pm

well yknow what... it was worth it. good job man!

0 reply
JoeLatics 10 wrote on June 6 2009, 08:46 am

Spot on, well done!

0 reply
bevlander 87 wrote on June 23 2009, 05:46 pm

Very nice my friend

guest
You may want to rate the tab now too:
select rating
Wanna post a correction for this tab? Suggest correction