Oops, an error
Loading. Please wait.

Christie Road Tab

version 3
version 3

Whole song

Interactive

34,524 views 24 this week
12 commentsread comments
1 2 3 4 5
accurate
x 18
add to favorites
launch autoscroll
font size
0
reset
how to read this tab
guitar tuner
Autoscroll
slow
fast
+/-
esc
set tempo
stop
Help us to improve Ultimate-Guitar.com Take our survey!
×
Author
Liam 5,085
Green Day Christie Road
From the album kerplunk
Track 4
Tabbed by Liam
Email: guitar_rocker_47@hotmail.com
Tuning Standard

Verse
e|---------------------------------------------------------------------------|
B|---------------------------------------------------------------------------|
G|---------------------------------------------------5-5-5-5-5-5-5-5-5-5-5-5-|
D|-5-5-5-5-5-5-5-5-5-5-5-5--2-2-2-2-2-2-2-2-2-2-2-2--5-5-5-5-5-5-5-5-5-5-5-5-|
A|-5-5-5-5-5-5-5-5-5-5-5-5--2-2-2-2-2-2-2-2-2-2-2-2--3-3-3-3-3-3-3-3-3-3-3-3-|
E|-3-3-3-3-3-3-3-3-3-3-3-3--0-0-0-0-0-0-0-0-0-0-0-0--------------------------|
PM * * * * * * * * * * * *  * * * * * * * * * * * *  * * * * * * * * * * * *

e|-0------------0-------0----------------------------------------------------|
B|-3--3----3------3---3---3---3----------------------------------------------|
G|-2----2----2------2-------2------------------------------------------------|
D|-0------------------------------5-5-5-5-5-5-5-5-5-5-5-5--2-2-2-2-2-2-2-2-2-|
A|--------------------------------5-5-5-5-5-5-5-5-5-5-5-5--2-2-2-2-2-2-2-2-2-|
E|--------------------------------3-3-3-3-3-3-3-3-3-3-3-3--0-0-0-0-0-0-0-0-0-|
PM                                * * * * * * * * * * * *  * * * * * * * * *

e|-------------------------------------0-------------0-------0---------------|
B|-------------------------------------3--3----3-------3---3---3---3---------|
G|--------5-5-5-5-5-5-5-5-5-5-5-5------2----2----2-------2-------2-----------|
D|-2-2-2--5-5-5-5-5-5-5-5-5-5-5-5------0-------------------------------------|
A|-2-2-2--3-3-3-3-3-3-3-3-3-3-3-3--------------------------------------------|
E|-0-0-0---------------------------------------------------------------------|
PM * * *

Chorus (Where there are palm mute marks just palm mute lightly)
e|-0------------0-------0---------0------------0-------0---------0-----------|
B|-3--3----3------3---3---3---2---3--3----3------3---3---3---3---3--3---3----|
G|-2----2----2------2-------2-----2----2----2------2-------2-----2----2---2--|
D|-0------------------------------0------------------------------0-----------|
A|---------------------------------------------------------------------------|
E|---------------------------------------------------------------------------|
PM ******************************                                ************

e|-0-------0---------0-----------0-------0--------0------------0------0------|
B|---3---3---3---3---3--3---3------3---3---3---3--3--3----3------3---3--3---3|
G|-----2-------2-----2----2---2------2-------2----2----2----2------2------2--|
D|-------------------0----------------------------0--------------------------|
A|---------------------------------------------------------------------------|
E|---------------------------------------------------------------------------|
PM*******************                             ***************************

e|-0------------0-------0----------------------------------------------------|
B|-3--3----3------3---3---3---3----------------------------------------------|
G|-2----2----2------2-------2-------5~~--------------7~~---------------------|
D|-0--------------------------------5~~-----5~~------7~~---------------------|
A|----------------------------------3~~-----5~~------5~~---------------------|
E|------------------------------------------3~~------------------------------|
Bridge
e|---------------------------------------------------------------------------|
B|---------------------------------------------------------------------------|
G|----------------5-5----------------------------5-5-------------------------|
D|-5-5--x-x--3-3--5-5-x-x--3-3----5-5--x-x--3-3--5-5-x-x--3-3----------------|
A|-5-5--x-x--3-3--3-3-x-x--3-3----5-5--x-x--3-3--3-3-x-x--3-3----------------|
E|-3-3--x-x--1-1------x-x--1-1----3-3--x-x--1-1------x-x--1-1----------------|

e|---------------------------------------------------------------------------|
B|---------------------------------------------------------------------------|
G|----------------5-5----------------------------5-5-------------------------|
D|-5-5--x-x--3-3--5-5-x-x--3-3----5-5--x-x--3-3--5-5-x-x--3-3----------------|
A|-5-5--x-x--3-3--3-3-x-x--3-3----5-5--x-x--3-3--3-3-x-x--3-3----------------|
E|-3-3--x-x--1-1------x-x--1-1----3-3--x-x--1-1------x-x--1-1----------------|

e|---------------------------------------------------------------------------|
B|---------------------------------------------------------------------------|
G|----------------5-5----------------------------5-5-------------------------|
D|-5-5--x-x--3-3--5-5-x-x--3-3----5-5--x-x--3-3--5-5-x-x--3-3----------------|
A|-5-5--x-x--3-3--3-3-x-x--3-3----5-5--x-x--3-3--3-3-x-x--3-3----------------|
E|-3-3--x-x--1-1------x-x--1-1----3-3--x-x--1-1------x-x--1-1----------------|

Interlude
e|---------------------------------------------------------------------------|
B|---------------------------------------------------------------------------|
G|---------------------------------------5-5-5-5-5-5-5-5-5-5-----------------|
D|-5-5-5-5-5-5-5-5--9-9-9-9-9-9-9-9-9-9--5-5-5-5-5-5-5-5-5-5-3-3-3-3-3-3-3-3-|
A|-5-5-5-5-5-5-5-5--9-9-9-9-9-9-9-9-9-9--3-3-3-3-3-3-3-3-3-3-3-3-3-3-3-3-3-3-|
E|-3-3-3-3-3-3-3-3--7-7-7-7-7-7-7-7-7-7----------------------1-1-1-1-1-1-1-1-|
PM **************************************************************************

e|---------------------------------------------------------------------------|
B|---------------------------------------------------------------------------|
G|---------------------------------------5-5-5-5-5-5-5-5-5-5-----------------|
D|-5-5-5-5-5-5-5-5--9-9-9-9-9-9-9-9-9-9--5-5-5-5-5-5-5-5-5-5-3-3-3-3-3-3-3-3-|
A|-5-5-5-5-5-5-5-5--9-9-9-9-9-9-9-9-9-9--3-3-3-3-3-3-3-3-3-3-3-3-3-3-3-3-3-3-|
E|-3-3-3-3-3-3-3-3--7-7-7-7-7-7-7-7-7-7----------------------1-1-1-1-1-1-1-1-|
PM***************************************************************************

e|---------------------------------------------------------------------------|
B|---------------------------------------------------------------------------|
G|---------5-5-5-5-5-5-5-5----------5-5-5-5-5-5-5-5----------5-5-5-5-5-5-5-5-|
D|-3-3-5-5-5-5-5-5-5-5-5-5--3-3-5-5-5-5-5-5-5-5-5-5--3-3-5-5-5-5-5-5-5-5-5-5-|
A|-3-3-5-5-3-3-3-3-3-3-3-3--3-3-5-5-3-3-3-3-3-3-3-3--3-3-5-5-3-3-3-3-3-3-3-3-|
E|-1-1-3-3------------------1-1-3-3------------------1-1-3-3-----------------|

e|---------------------------------------------------------------------------|
B|---------------------------------------------------------------------------|
G|------------------5-5-5-5-5-5-5-5--3-3-3-3-3-3-3-3--5-5-5-5-5-5-5-5--------|
D|-3-3-3-3-3-3-3-3--5-5-5-5-5-5-5-5--3-3-3-3-3-3-3-3--5-5-5-5-5-5-5-5--------|
A|-3-3-3-3-3-3-3-3--3-3-3-3-3-3-3-3--1-1-1-1-1-1-1-1--3-3-3-3-3-3-3-3--------|
E|-1-1-1-1-1-1-1-1-----------------------------------------------------------|

Outro
e|---------------------------------------------------------------------------|
B|---------------------------------------------------------------------------|
G|----------------5-5----------------------------5-5-------------------------|
D|-5-5--x-x--3-3--5-5-x-x--3-3----5-5--x-x--3-3--5-5-x-x--3-3----------------|
A|-5-5--x-x--3-3--3-3-x-x--3-3----5-5--x-x--3-3--3-3-x-x--3-3----------------|
E|-3-3--x-x--1-1------x-x--1-1----3-3--x-x--1-1------x-x--1-1----------------|

e|---------------------------------------------------------------------------|
B|---------------------------------------------------------------------------|
G|----------------5-5----------------------------5-5-------------------------|
D|-5-5--x-x--3-3--5-5-x-x--3-3----5-5--x-x--3-3--5-5-x-x--3-3----------------|
A|-5-5--x-x--3-3--3-3-x-x--3-3----5-5--x-x--3-3--3-3-x-x--3-3----------------|
E|-3-3--x-x--1-1------x-x--1-1----3-3--x-x--1-1------x-x--1-1----------------|

Order

Verse
Chorus
Verse
Chorus
Bridge
Interlude
Outro

Lyrics

(Verse 1)
Staring out of my window 
Watching the cars go rolling by
And my friends are gone
I've got nothing to do

So I sit here patiently
Watching the clock tick so slowly
Gotta get away
Or my brains will explode
(Chorus)
Give me something to do to kill some time
Take me to that place that I call home
Take away the strains of being lonely
Take me to the tracks and Christie road 

(Verse 2)
See the hills from above
Standing on my (not sure on what Billie sings here)
And the sun went down
And the night fills the sky

Now I feel like me once again
As I train comes a rolling in
Spilt my (not sure on what Billie sings here)
Slapped my brains out so high

(Chorus)

(Interlude)
Mother stay out of my way
Of that place we go
We'll always seem to find our way 
To Christie road
Mother stay out of my way
Of that place we go
We'll always seem to find our way 
To Christie road

If there's one thing that I need
That makes me feel complete
So I go to Christie road its.. Home its.. Home

(Outro)
Its.. Home
Its.. Home
Its.. Home
Suggest correction new What's this?
You can suggest a correction to this tab. Community and Mods will review your correction and vote to approve or reject it.
comments
print report bad tab
12 comments total. Showing first comments.
0 reply
stumaster18 1,574 wrote on September 14 2005, 12:00 am

I just dont like the choruses. I'm verrrry sure there are power chors played

+3 reply
RuubSuub 32 wrote on May 2 2006, 02:33 pm

i think the tuning is 1/2 step down...?

0 reply
WCS_Is_Worse1 270 wrote on November 24 2006, 09:16 pm

yes there are power chords

guest
You may want to rate the tab now too:
select rating
Please do not post tabs as comments. Select "correction" instead!