Oops, an error
Loading. Please wait.

Chump Tab

version 1
version 1

Whole song

Interactive

15,103 views 9 this week
no commentswrite comment
1 2 3 4 5
accurate
x 5
add to favorites
launch autoscroll
font size
0
reset
how to read this tab
guitar tuner
Tab Pro tools
  • play this tab
  • loop segment
  • change instrument
  • show fretboard
  • metronome
×
Best way to learn
"Chump"
Autoscroll
slow
fast
+/-
esc
set tempo
stop
Contributor
1/2 step down tuning

listen to the song to pick up how many times you repeat the verses and choruses. it's 
an easy song.

~ = let ring out
\ = slide down
trem /// = tremolo picking


VERSE (repeat as needed)

E--------------------------0--------------------------0--
B--------------------0-0---0--------------------0-0---0--
G--4--4--4---------1-----1-1--4--4--4---------1-----1-1--
D--4--4--4-2-2---2---------2--4--4--4-2-2---2---------2--
A--2--2--2-0-2-------------2--2--2--2-0-2-------------2--
E------------0-------------0--------------0-----------0--

CHORUS (repeat as needed)

E-------------------
B-------------------
G------1-1-4--4--4--
D--4-4-2-2-4--4--4--
A--4-4-2-2-2--2--2--
E--2-2-0-0----------

INTERLUDE 

E------|-------------
B------|-------------
G------|--11-11-11~-- <- REPEAT SEVERAL TIMES
D--4~--|--11-11-11~--     (strum with 3 really     
A--4~--|---9--9--9~--                quick strokes)      
E--2~--|-------------

E----------------------------------------------
B----------------------------------------------
G--11-11-11~----9-9-9~----11-11-11~----9-9-9\--
D--11-11-11~----9-9-9~----11-11-11~----9-9-9\--
A---9--9--9~----7-7-7~-----9--9--9~----7-7-7\--
E----------------------------------------------

E--------------------------------------
B--------------------------------------
G--------------------------------------
D--\4-4-4~---2-2-2~---4-4-4~---2-2-2~--
A--\4-4-4~---2-2-2~---4-4-4~---2-2-2~--
E--\2-2-2~---0-0-0~---2-2-2~---0-0-0~--


   trem //////////////////////////////////////////
E--------------------------------------------------
B--------------------------------------------------
G--------------------------------------------------
D--4-4-4-4-4-4-4-4-4-4-4-4-4-4-4-4-4-4-4-4-4-4-4-4-
A--4-4-4-4-4-4-4-4-4-4-4-4-4-4-4-4-4-4-4-4-4-4-4-4-
E--0-0-2-0-0-2-0-0-2-0-0-2-0-0-2-0-0-2-0-0-2-0-0-2-


   trem //////////////////////////////////////////
E------4-4---------------------4-4-----------------
B--4-4-4-4-4-4-------------4-4-4-4-4-4-------------
G--4-4-4-4-4-4-------------4-4-4-4-4-4-------------
D--4-4-4-4-4-4-4-4-4-4-4-4-4-4-4-4-4-4-4-4-4-4-4-4-
A--------------4-4-4-4-4-4-------------4-4-4-4-4-4-
E--------------0-0-2-0-0-2-------------0-0-2-0-0-2-


   trem //////////////////////////////////////////
E------4-4---------------------4-4-----------------
B--4-4-4-4-4-4-------------4-4-4-4-4-4-------------
G--4-4-4-4-4-4-------------4-4-4-4-4-4-------------
D--4-4-4-4-4-4-4-4-4-4-4-4-4-4-4-4-4-4-4-4-4-4-4-4-
A--------------4-4-4-4-4-4-------------4-4-4-4-4-4-
E--------------0-0-2-0-0-2-------------0-0-2-0-0-2-


   trem //////////////////////////////////////////
E------4-4---------------------4-4-----------------
B--4-4-4-4-4-4-------------4-4-4-4-4-4-------------
G--4-4-4-4-4-4-------------4-4-4-4-4-4-------------
D--4-4-4-4-4-4-4-4-4-4-4-4-4-4-4-4-4-4-4-4-4-4-4-4-
A--------------4-4-4-4-4-4-------------4-4-4-4-4-4-
E--------------0-0-2-0-0-2-------------0-0-2-0-0-2-


   trem //////////////////////////////////////////
E------4-4---------------------4-4-----------------
B--4-4-4-4-4-4-------------4-4-4-4-4-4-------------
G--4-4-4-4-4-4-------------4-4-4-4-4-4-------------
D--4-4-4-4-4-4-4-4-4-4-4-4-4-4-4-4-4-4-4-4-4-4-4-4-
A--------------4-4-4-4-4-4-------------4-4-4-4-4-4-
E--------------0-0-2-0-0-2-------------0-0-2-0-0-2-


   trem //////////////////
E-----------------------------
B--------------------------4~-
G--------------------------4~-
D--4-4-4-4-4-4-4-4-4-4-4-4----
A--4-4-4-4-4-4-4-4-4-4-4-4----
E--0-0-2-0-0-2-0-0-2-0-0-2----


   trem //////////////////    trem //////
E--------------------------------------------
B--------------------------4~-------------4~-
G--------------------------4~----------------
D--4-4-4-4-4-4-4-4-4-4-4-4----4-4-4-4-4-4----
A--4-4-4-4-4-4-4-4-4-4-4-4----4-4-4-4-4-4----
E--0-0-2-0-0-2-0-0-2-0-0-2----0-0-2-0-0-2----

   trem //////////////////    trem //////
E-----------------------------------------4~-
B--------------------------4~-------------4~-
G--------------------------4~-------------4~-
D--4-4-4-4-4-4-4-4-4-4-4-4----4-4-4-4-4-4----
A--4-4-4-4-4-4-4-4-4-4-4-4----4-4-4-4-4-4----
E--0-0-2-0-0-2-0-0-2-0-0-2----0-0-2-0-0-2----

E-------------------------
B--4~---------------------
G-----------------1~--4~--
D-----------------2~--4~--
A-----------------2~------
E-----------------0~------
comments
print report bad tab
I want to post or [tab]
guest
You may want to rate the tab now too:
select rating
Please do not post tabs as comments. Select "correction" instead!