Oops, an error
Loading. Please wait.

Chump Tab

version 2
version 2

Whole song

Interactive

1,395 views 1 this week
11 commentsread comments
1 2 3 4 5
accurate
x 4
add to favorites
launch autoscroll
font size
0
reset
how to read this tab
guitar tuner
Tab Pro tools
  • play this tab
  • loop segment
  • change instrument
  • show fretboard
  • metronome
Autoscroll
slow
fast
+/-
esc
set tempo
stop
Contributor
Difficulty
advanced
Tuning:   1/2 Step Down - (Eb Ab Db Gb Bb eb)



Key:  / or \ - Slide up or down
        h    - Hammer





Verse 1 (No Guitar)





eb|---------------------------------------------------------------------------|
Bb|---------------------------------------------------------------------------|
Gb|--7-7-7-7-7-7-7-7-7-7-7-7-7-7----------------------------------------------|
Db|--7-7-7-7-7-7-7-7-7-7-7-7-7-7----------------------------------------------|
Ab|--5-5-5-5-5-5-5-5-5-5-5-5-5-5----------------------------------------------|
Eb|---------------------------------------------------------------------------|





Chorus

eb|---------------------------------------------------------------------------|
Bb|---------------------------------------------------------------------------|
Gb|--------------------------------9--9-9-------------------------------------|
Db|--9----9----9----9----7----7----9--9-9-----(x3)----------------------------|
Ab|--9----9----9----9----7----7----7--7-7-------------------------------------|
Eb|--7--0-7--0-7--0-7--0-5--0-5--0--------------------------------------------|


eb|---------------------------------------------------------------------------|
Bb|---------------------------------------------------------------------------|
Gb|------------------------------------------9\-------------------------------|
Db|--9----9----9----9----7----7----7----7----9\-------------------------------|
Ab|--9----9----9----9----7----7----7----7----7\-------------------------------|
Eb|--7--0-7--0-7--0-7--0-5--0-5--0-5--0-5--0----------------------------------|





Verse 2 (No Guitar)





eb|---------------------------------------------------------------------------|
Bb|---------------------------------------------------------------------------|
Gb|--7-7-7-7-7-7-7-7-7-7-7-7-7-7----------------------------------------------|
Db|--7-7-7-7-7-7-7-7-7-7-7-7-7-7----------------------------------------------|
Ab|--5-5-5-5-5-5-5-5-5-5-5-5-5-5----------------------------------------------|
Eb|---------------------------------------------------------------------------|





Chorus

eb|---------------------------------------------------------------------------|
Bb|---------------------------------------------------------------------------|
Gb|--------------------------------9--9-9-------------------------------------|
Db|--9----9----9----9----7----7----9--9-9-----(x3)----------------------------|
Ab|--9----9----9----9----7----7----7--7-7-------------------------------------|
Eb|--7--0-7--0-7--0-7--0-5--0-5--0--------------------------------------------|


eb|---------------------------------------------------------------------------|
Bb|---------------------------------------------------------------------------|
Gb|---------------------------------------------------------------------------|
Db|--9----9----9----9----7----7----7----7-------------------------------------|
Ab|--9----9----9----9----7----7----7----7-------------------------------------|
Eb|--7--0-7--0-7--0-7--0-5--0-5--0-5--0-5--0----------------------------------|





Interlude

eb|---------------------------------------------------------------------------|
Bb|---------------------------------------------------------------------------|
Gb|--9--9-9--9-9--9-9--9-7--7-7--7-7--7-7--7----------------------------------|
Db|--9--9-9--9-9--9-9--9-7--7-7--7-7--7-7--7-----(x4)-------------------------|
Ab|--7--7-7--7-7--7-7--7-5--5-5--5-5--5-5--5----------------------------------|
Eb|---------------------------------------------------------------------------|


eb|---------------------------------------------------------------------------|
Bb|---------------------------------------------------------------------------|
Gb|--------------------------------9-9-9-9------------------------------------|
Db|--9----9----9----9----7----7----9-9-9-9-----(x3)---------------------------|
Ab|--9----9----9----9----7----7----7-7-7-7------------------------------------|
Eb|--7--0-7--0-7--0-7--0-5--0-5--0--------------------------------------------|


eb|---------------------------------------------------------------------------|
Bb|---------------------------------------------------------------------------|
Gb|------------------------------------------9\-------------------------------|
Db|--9----9----9----9----7----7----7----7----9\-------------------------------|
Ab|--9----9----9----9----7----7----7----7----7\-------------------------------|
Eb|--7--0-7--0-7--0-7--0-5--0-5--0-5--0-5--0----------------------------------|





Verse 3 (No Guitar)





eb|---------------------------------------------------------------------------|
Bb|---------------------------------------------------------------------------|
Gb|--7-7-7-7-7-7-7-7-7-7-7-7-7-7-7-7-7-7-7-7----------------------------------|
Db|--7-7-7-7-7-7-7-7-7-7-7-7-7-7-7-7-7-7-7-7-7--------------------------------|
Ab|--5-5-5-5-5-5-5-5-5-5-5-5-5-5-5-5-5-5-5-5-7--------------------------------|
Eb|------------------------------------------5--0-----------------------------|





Chorus

eb|---------------------------------------------------------------------------|
Bb|---------------------------------------------------------------------------|
Gb|--------------------------------9--9-9-------------------------------------|
Db|--9----9----9----9----7----7----9--9-9-----(x7)----------------------------|
Ab|--9----9----9----9----7----7----7--7-7-------------------------------------|
Eb|--7--0-7--0-7--0-7--0-5--0-5--0--------------------------------------------|


eb|---------------------------------------------------------------------------|
Bb|---------------------------------------------------------------------------|
Gb|------------------------------------------9\-------------------------------|
Db|--9----9----9----9----7----7----7----7----9\-------------------------------|
Ab|--9----9----9----9----7----7----7----7----7\-------------------------------|
Eb|--7--0-7--0-7--0-7--0-5--0-5--0-5--0-5--0----------------------------------|





Outro

eb|----------------------------12-------------------------------12------------|
Bb|--9h10---10-7\----9h10---12-12-----9h10---10-7\----9h10---12-12------------|
Gb|--9-------9-7\----9-------9--------9-------9-7\----9-------9---------------|
Db|---------------------------------------------------------------------------|
Ab|---------------------------------------------------------------------------|
Eb|---------------------------------------------------------------------------|


eb|------------------------------12-------------------------------12----------|
Bb|--9h10---10-7\------9h10---12-12-----9h10---10-7\----9h10---12-12----------|
Gb|--9-------9-7\----9---------9--------9-------9-7\----9-------9-------------|
Db|---------------------------------------------------------------------------|
Ab|---------------------------------------------------------------------------|
Eb|---------------------------------------------------------------------------|
comments
print report bad tab
11 comments total. Showing first comments.
0 reply
guitarfreek6889 wrote on June 2 2006, 11:35 am

The Verse is all wrong on this but other than that its all good.

0 reply
fatty_mcgee56 wrote on June 24 2006, 08:54 am

either im getting the wrong link or u tabbed longview not chump

0 reply
kyledbz wrote on September 5 2006, 03:14 pm

This is Longview!!!!

I want to post or [tab]
guest
You may want to rate the tab now too:
select rating
Please do not post tabs as comments. Select "correction" instead!