Oops, an error
Loading. Please wait.

Coming Clean Tab

version 6
version 6
3,221 views 21 this week
no commentswrite comment
1 2 3 4 5
excellent!
x 1
add to favorites
launch autoscroll
font size
0
reset
how to read this tab
guitar tuner
Tab Pro tools
  • play this tab
  • loop segment
  • change instrument
  • show fretboard
  • metronome
Autoscroll
slow
fast
+/-
esc
set tempo
stop
Contributor
Difficulty
Tuning
novice
D# G# C# F# A# D#
------------------------------------------------------------------------ 
Coming Clean - Green Day 
------------------------------------------------------------------------ 
Album: Dookie Tabbed by:procrastinator3 
Email: 
Tuning: Eb-Ab-Db-Gb-Bb-eb 


Verse 1: 
    Seventeen and strung out on confusion 
e|--------------------------------------------------------------------------|
B|--4-----------------------------------------------------------------------|
G|--4-----------------------------------------------------------------------|
D|--4------------------------------6----------------------------------------|
A|--2------------------------------6----------------------------------------|
E|---------------------------------4----------------------------------------|

For the rest of it, I'll just write out strum patterns I play, you can figure it 
out exactly if you want.
I think mine is pretty close. Remember, don't only strum down, strum up too.
 
    Trapped inside a roll... 
e|--2----------------------------------------------------------------------|
B|--4--x--4-4--x--4-x-4-x-4-4-4-4------------------------------------------|
G|--4--x--4-4--x--4-x-4-x-4-4-4-4------------------------------------------| 
D|--4--x--4-4--x--4-x-4-x-4-4-4-4--6--x--6-6--x--6-x-6-x-6-6-6-6-----------|
A|--2--x--2-2--x--2-x-2-x-2-2-2-2--6--x--6-6--x--6-x-6-x-6-6-6-6-----------|
E|---------------------------------4--x--4-4--x--4-x-4-x-4-4-4-4-----------|

  Chorus 
  I found out what it takes... 
e|---------------------------------------------------0---0-----0-0-0--------|
B|---------------------------------------------------0---0-----0-0-0--------|
G|---------------------------------------------------1---1-----1-1-1--------|
D|--4-4-4-4-4-4-4-4-4-4-4-4-4-4-4-4--2-2-2-2-2-2-2-2-2-2-2-2-2-2-2-2--------|
A|--4-4-4-4-4-4-4-4-4-4-4-4-4-4-4-4--2-2-2-2-2-2-2-2-2-2-2-2-2-2-2-2--------|
E|--2-2-2-2-2-2-2-2-2-2-2-2-2-2-2-2--0-0-0-0-0-0-0-0-0-0-0-0-0-0-0-0--------|

 Well, Mom and Dad will... 
e|---------------------------------------------------0---0-----0-0-0--------|
B|---------------------------------------------------0---0-----0-0-0--------|
G|---------------------------------------------------1---1-----1-1-1--------|
D|--4-4-4-4-4-4-4-4-4-4-4-4-4-4-4-4--2-2-2-2-2-2-2-2-2-2-2-2-2-2-2-2--------|
A|--4-4-4-4-4-4-4-4-4-4-4-4-4-4-4-4--2-2-2-2-2-2-2-2-2-2-2-2-2-2-2-2--------|
E|--2-2-2-2-2-2-2-2-2-2-2-2-2-2-2-2--0-0-0-0-0-0-0-0-0-0-0-0-0-0-0-0--------|

 Verse 2 
    Secrets collecting dust... 
e|--2----------------------------------------------------------------------|
B|--4--x--4-4--x--4-x-4-x-4-4-4-4------------------------------------------|
G|--4--x--4-4--x--4-x-4-x-4-4-4-4------------------------------------------|
D|--4--x--4-4--x--4-x-4-x-4-4-4-4--6--x--6-6--x--6-x-6-x-6-6-6-6-----------| 
A|--2--x--2-2--x--2-x-2-x-2-2-2-2--6--x--6-6--x--6-x-6-x-6-6-6-6-----------| 
E|---------------------------------4--x--4-4--x--4-x-4-x-4-4-4-4-----------| 

   Skeletons come to life... 
e|--2----------------------------------------------------------------------|
B|--4--x--4-4--x--4-x-4-x-4-4-4-4------------------------------------------|
G|--4--x--4-4--x--4-x-4-x-4-4-4-4------------------------------------------|
D|--4--x--4-4--x--4-x-4-x-4-4-4-4--6--x--6-6--x--6-x-6-x-6-6-6-6-----------|
A|--2--x--2-2--x--2-x-2-x-2-2-2-2--6--x--6-6--x--6-x-6-x-6-6-6-6-----------|
E|---------------------------------4--x--4-4--x--4-x-4-x-4-4-4-4-----------|

 Chorus 
  I found out what it takes... 
e|---------------------------------------------------0---0-----0-0-0--------|
B|---------------------------------------------------0---0-----0-0-0--------|
G|---------------------------------------------------1---1-----1-1-1--------|
D|--4-4-4-4-4-4-4-4-4-4-4-4-4-4-4-4--2-2-2-2-2-2-2-2-2-2-2-2-2-2-2-2--------|
A|--4-4-4-4-4-4-4-4-4-4-4-4-4-4-4-4--2-2-2-2-2-2-2-2-2-2-2-2-2-2-2-2--------|
E|--2-2-2-2-2-2-2-2-2-2-2-2-2-2-2-2--0-0-0-0-0-0-0-0-0-0-0-0-0-0-0-0--------|


 Well, Mom and Dad will...         WHAT'S HAPPENING TO ME! 
e|---------------------------------------------------0---0-----0-0-0--------|
B|---------------------------------------------------0---0-----0-0-0--------|
G|---------------------------------------------------1---1-----1-1-1--------|
D|--4-4-4-4-4-4-4-4-4-4-4-4-4-4-4-4--2-2-2-2-2-2-2-2-2-2-2-2-2-2-2-2--------|
A|--4-4-4-4-4-4-4-4-4-4-4-4-4-4-4-4--2-2-2-2-2-2-2-2-2-2-2-2-2-2-2-2--------|
E|--2-2-2-2-2-2-2-2-2-2-2-2-2-2-2-2--0-0-0-0-0-0-0-0-0-0-0-0-0-0-0-0--------|

 Bridge x2 (Rhythm Guitar plays Verse 2, Lead guitar plays this) 
e|-------------------------------------------------------------------------|
B|--7--4-4--4-4--4-4-5-4---------------------------------------------------|
G|--4--4-4--4-4--4-4-4-4--8--9-8--8-8-9-8\---------------------------------|
D|------------------------6--6-6--6-6-6-6\---------------------------------|
A|-------------------------------------------------------------------------|
E|-------------------------------------------------------------------------|

 Solo (Rhythm Guitar plays Chorus, Lead guitar plays this) 
e|------------------------0-00---0---0---000--------------------------------|
B|------------------------0-00---0---0---000--------------------------------|
G|----3-3-444-6-4-3-4-3-1-1-11-1-1-1-1-1-111--------------------------------|
D|----4-4-444-4-4-4-4-4-2-2-22-2-2-2-2-2-222--------------------------------|
A|--------------------------------------------------------------------------|
E|--------------------------------------------------------------------------|
 
e|------------------------0-00---0-000000000--------------------------------|
B|------------------------0-00---0-000000000--------------------------------|
G|----3-3-444-6-4-3-4-3-1-1-11-1-1-111111111--------------------------------|
D|----4-4-444-4-4-4-4-4-2-2-22-2-2-222222222--------------------------------|
A|--------------------------------------------------------------------------|
E|--------------------------------------------------------------------------|

 Verse 3 Seventeen and coming clean... 
e|--2----------------------------------------------------------------------|
B|--4--x--4-4--x--4-x-4-x-4-4-4-4------------------------------------------|
G|--4--x--4-4--x--4-x-4-x-4-4-4-4------------------------------------------| 
D|--4--x--4-4--x--4-x-4-x-4-4-4-4--6--x--6-6--x--6-x-6-x-6-6-6-6-----------|
A|--2--x--2-2--x--2-x-2-x-2-2-2-2--6--x--6-6--x--6-x-6-x-6-6-6-6-----------|
E|---------------------------------4--x--4-4--x--4-x-4-x-4-4-4-4-----------|

 I finally figured... 
e|--2----------------------------------------------------------------------|
B|--4--x--4-4--x--4-x-4-x-4-4-4-4------------------------------------------| 
G|--4--x--4-4--x--4-x-4-x-4-4-4-4------------------------------------------|
D|--4--x--4-4--x--4-x-4-x-4-4-4-4--6--x--6-6--x--6-x-6-x-6-6-6-6-----------|
A|--2--x--2-2--x--2-x-2-x-2-2-2-2--6--x--6-6--x--6-x-6-x-6-6-6-6-----------| 
E|---------------------------------4--x--4-4--x--4-x-4-x-4-4-4-4-----------|

 Chorus I found out what it takes... 
e|---------------------------------------------------0---0-----0-0-0--------|
B|---------------------------------------------------0---0-----0-0-0--------|
G|---------------------------------------------------1---1-----1-1-1--------|
D|--4-4-4-4-4-4-4-4-4-4-4-4-4-4-4-4--2-2-2-2-2-2-2-2-2-2-2-2-2-2-2-2--------|
A|--4-4-4-4-4-4-4-4-4-4-4-4-4-4-4-4--2-2-2-2-2-2-2-2-2-2-2-2-2-2-2-2--------|
E|--2-2-2-2-2-2-2-2-2-2-2-2-2-2-2-2--0-0-0-0-0-0-0-0-0-0-0-0-0-0-0-0--------|


 Mom and Dad will...                            WHAT'S HAPPENING TO ME! 
e|---------------------------------------------------0---0-----0-0-0--------|
B|---------------------------------------------------0---0-----0-0-0--------|
G|---------------------------------------------------1---1-----1-1-1--------|
D|--4-4-4-4-4-4-4-4-4-4-4-4-4-4-4-4--2-2-2-2-2-2-2-2-2-2-2-2-2-2-2-2--2-----|
A|--4-4-4-4-4-4-4-4-4-4-4-4-4-4-4-4--2-2-2-2-2-2-2-2-2-2-2-2-2-2-2-2--2-----|
E|--2-2-2-2-2-2-2-2-2-2-2-2-2-2-2-2--0-0-0-0-0-0-0-0-0-0-0-0-0-0-0-0--0-----|

  The outro power chord. It's strummed harder and louder. Don't let it ring 
e|--------------------------------------------------------------------------|
B|--------------------------------------------------------------------------|
G|--------------------------------------------------------------------------|
D|---2----------------------------------------------------------------------|
A|---2----------------------------------------------------------------------|
E|---0----------------------------------------------------------------------|


************************************ 
| / slide up            | 
| \ slide down          | 
| h hammer-on           |
| p pull-off            |
| ~ vibrato             |
| + harmonic            |
| x Mute note           |
| b Bend                | 
| pb Pre-bend           |
| br Bend release       |
| pbr Pre-bend release  |
| brb Bend release bend |
************************************
comments
We did not receive enough feedback on this tab! Please rate:
print report bad tab
1 2 3 4 5
I want to post or [tab]
guest
You may want to rate the tab now too:
select rating
Please do not post tabs as comments. Select "correction" instead!