Oops, an error
Loading. Please wait.

Devils Kind Tab

version 1
version 1

Whole song

  • Tab for Devil's Kind by Billie Joe Armstrong from the movie "Ordinary World".
973 views 84 this week
no commentswrite comment
1 2 3 4 5
x 6
add to favorites
launch autoscroll
font size
0
reset
how to read this tab
guitar tuner
Autoscroll
slow
fast
+/-
esc
set tempo
stop
Help us to improve Ultimate-Guitar.com Take our survey!
×
Author
Difficulty
From the movie Ordinary World(2016)

I couldn't find any tabs of the song so that why i made it.

If you find any errors please let me know :)



[Intro]
e|-5-5-5-5-5-5-5-5-5-5----------------------5-5-5-5-5-5-5-5-5-5-------------------------------------------|
B|-8-8-8-8-8-8-8-8-8-8----------------------8-8-8-8-8-8-8-8-8-8-------------------------------------------|
G|-6-6-6-6-6-6-6-6-6-6----------------------6-6-6-6-6-6-6-6-6-6-------------------------------------------|
D|-7-7-7-7-7-7-7-7-7-7-3-3-3-3-3--6-6-6-6-6-7-7-7-7-7-7-7-7-7-7-3-3-3-3-3-6-6-6-6-6-----------------------|
A|-5-5-5-5-5-5-5-5-5-5-3-3-3-3-3--6-6-6-6-6-5-5-5-5-5-5-5-5-5-5-3-3-3-3-3-6-6-6-6-6-----------------------|
E|-5-5-5-5-5-5-5-5-5-5-1-1-1-1-1--4-4-4-4-4-5-5-5-5-5-5-5-5-5-5-1-1-1-1-1-4-4-4-4-4-----------------------|
Puke stains and cigarettes
The party is in my pocket
I'm looking for a drink
And a couch to call my own
Give me a bump and i will call
And whisper dirty lies
The rapture in your ear
And we'll both be terrified


[Verse]
e|----------------------------------------------------------------------------------------------------------|
B|----------------------------------------------------------------------------------------------------------|
G|-----------------------------------------6-6-6-6-6-----------3-3-3-3-3-8-8-8-8-8-8------------------------|
D|-3-3-3-3-3-6-6-6-6-6-3-3-3-3-3-3-5-6-5-6-6-6-6-6-6-3-3-3-3-3-3-3-3-3-3-8-8-8-8-8-8------------------------|
A|-3-3-3-3-3-6-6-6-6-6-3-3-3-3-3-3-5-6-5-6-4-4-4-4-4-3-3-3-3-3-1-1-1-1-1-6-6-6-6-6-6------------------------|
E|-1-1-1-1-1-4-4-4-4-4-1-1-1-1-1-1-3-4-3-4-----------1-1-1-1-1----------------------------------------------|
Bloodshot eyes and you're peppermint
We can roll like dogs from the devil
Gimme one last try for your love tonight
I'll be the king forever
And you can be my sunshine


[Chorus]
e|---------------------------------------------------------------------------------------------------------|
B|---------------------------------------------------------------------------------------------------------|
G|-----------5-5-5-5-5-------------------------------5-5-5-5-5-----------3-3-3-3-3-----------9-------------|
D|-6-6-6-6-6-5-5-5-5-5-3-3-3-3-3-3-3-5-5-6-6-6-6-6-6-5-5-5-5-5-3-3-3-3-3-3-3-3-3-3-6-6-6-6-6-9-------------|
A|-6-6-6-6-6-3-3-3-3-3-3-3-3-3-3-3-3-5-5-6-6-6-6-6-6-3-3-3-3-3-3-3-3-3-3-1-1-1-1-1-6-6-6-6-6-7-------------|
E|-4-4-4-4-4-----------1-1-1-1-1-1-1-3-3-4-4-4-4-4-4-----------1-1-1-1-1-----------4-4-4-4-4---------------|
We are the devil's kind
We are the devil's kind
We are the devil's kind
And now I won't back down
I said I won't back down
I am the devil's kind


[Intro]
e|-5-5-5-5-5-5-5-5-5-5----------------------5-5-5-5-5-5-5-5-5-5-------------------------------------------|
B|-8-8-8-8-8-8-8-8-8-8----------------------8-8-8-8-8-8-8-8-8-8-------------------------------------------|
G|-6-6-6-6-6-6-6-6-6-6----------------------6-6-6-6-6-6-6-6-6-6-------------------------------------------|
D|-7-7-7-7-7-7-7-7-7-7-3-3-3-3-3--6-6-6-6-6-7-7-7-7-7-7-7-7-7-7-3-3-3-3-3-6-6-6-6-6-----------------------|
A|-5-5-5-5-5-5-5-5-5-5-3-3-3-3-3--6-6-6-6-6-5-5-5-5-5-5-5-5-5-5-3-3-3-3-3-6-6-6-6-6-----------------------|
E|-5-5-5-5-5-5-5-5-5-5-1-1-1-1-1--4-4-4-4-4-5-5-5-5-5-5-5-5-5-5-1-1-1-1-1-4-4-4-4-4-----------------------|
Take me into the water
And pull me from the slaughter
Because I've got the shakes
And I'm so petrified


[Verse]
e|----------------------------------------------------------------------------------------------------------|
B|----------------------------------------------------------------------------------------------------------|
G|-----------------------------------------6-6-6-6-6-----------3-3-3-3-3-8-8-8-8-8-8------------------------|
D|-3-3-3-3-3-6-6-6-6-6-3-3-3-3-3-3-5-6-5-6-6-6-6-6-6-3-3-3-3-3-3-3-3-3-3-8-8-8-8-8-8------------------------|
A|-3-3-3-3-3-6-6-6-6-6-3-3-3-3-3-3-5-6-5-6-4-4-4-4-4-3-3-3-3-3-1-1-1-1-1-6-6-6-6-6-6------------------------|
E|-1-1-1-1-1-4-4-4-4-4-1-1-1-1-1-1-3-4-3-4-----------1-1-1-1-1----------------------------------------------|
Bloodshot eyes and you're peppermint
We can roll like dogs from the devil
Gimme one last try for your love tonight
I'll be the king forever
And you can be my sunshine


[Chorus]
e|---------------------------------------------------------------------------------------------------------|
B|---------------------------------------------------------------------------------------------------------|
G|-----------5-5-5-5-5-------------------------------5-5-5-5-5-----------3-3-3-3-3-----------9-------------|
D|-6-6-6-6-6-5-5-5-5-5-3-3-3-3-3-3-3-5-5-6-6-6-6-6-6-5-5-5-5-5-3-3-3-3-3-3-3-3-3-3-6-6-6-6-6-9-------------|
A|-6-6-6-6-6-3-3-3-3-3-3-3-3-3-3-3-3-5-5-6-6-6-6-6-6-3-3-3-3-3-3-3-3-3-3-1-1-1-1-1-6-6-6-6-6-7-------------|
E|-4-4-4-4-4-----------1-1-1-1-1-1-1-3-3-4-4-4-4-4-4-----------1-1-1-1-1-----------4-4-4-4-4---------------|
We are the devil's kind
We are the devil's kind
We are the devil's kind
And now I won't back down
I said I won't back down
I am the devil's kind


[Chorus]
e|---------------------------------------------------------------------------------------------------------|
B|---------------------------------------------------------------------------------------------------------|
G|-----------5-5-5-5-5-------------------------------5-5-5-5-5-----------3-3-3-3-3-----------9-------------|
D|-6-6-6-6-6-5-5-5-5-5-3-3-3-3-3-3-3-5-5-6-6-6-6-6-6-5-5-5-5-5-3-3-3-3-3-3-3-3-3-3-6-6-6-6-6-9-------------|
A|-6-6-6-6-6-3-3-3-3-3-3-3-3-3-3-3-3-5-5-6-6-6-6-6-6-3-3-3-3-3-3-3-3-3-3-1-1-1-1-1-6-6-6-6-6-7-------------|
E|-4-4-4-4-4-----------1-1-1-1-1-1-1-3-3-4-4-4-4-4-4-----------1-1-1-1-1-----------4-4-4-4-4---------------|
We are the devil's kind
We are the devil's kind
We are the devil's kind
And now I won't back down
I said I won't back down
I am the devil's kind


[Outro]
e|-5-5-5-5-5-5-5-5-5-5------------------------5-5-5-5-5-5-5-5-5-5-------------------------------------------|
B|-8-8-8-8-8-8-8-8-8-8------------------------8-8-8-8-8-8-8-8-8-8-------------------------------------------|
G|-6-6-6-6-6-6-6-6-6-6------------------------6-6-6-6-6-6-6-6-6-6-------------------------------------------|
D|-7-7-7-7-7-7-7-7-7-7--3-3-3-3-3--6-6-6-6-6--7-7-7-7-7-7-7-7-7-7-------------------------------------------|
A|-5-5-5-5-5-5-5-5-5-5--3-3-3-3-3--6-6-6-6-6--5-5-5-5-5-5-5-5-5-5-------------------------------------------|
E|-5-5-5-5-5-5-5-5-5-5--1-1-1-1-1--4-4-4-4-4--5-5-5-5-5-5-5-5-5-5-------------------------------------------|
Suggest correction
comments
print report bad tab
guest
You may want to rate the tab now too:
select rating
Wanna post a correction for this tab? Suggest correction