Oops, an error
Loading. Please wait.

Devils Kind bass

version 2
version 2

Whole song

49 views 3 this week
no commentswrite comment
1 2 3 4 5
2 more votes to show rating
add to favorites
×
Save as Personal and add changes to this tab that will be seen only by you. Learn more ›
×
You can save this tab as Personal to edit and correct it or add notes. All changes will be seen only by you. Learn more »
launch autoscroll
font size
0
reset
guitar tuner
edit
Autoscroll
slow
fast
+/-
esc
set tempo
stop
Author
Difficulty
Green Day - Devil's Kind
Bass Tabs

[Intro]
G|-------------|------|-------------------|-------------------|
D|-------------|------|-------------------|-------------------|
A|-------------|------|-------------------|-------------------|
E|-5-x-5-x-5-x-|-REST-|-5-x-5-x-5-x-5-5-x-|-5-x-5-x-5-x-5-5-x-|

[Verse 1]
(Puke stains, and Cigarettes...)
G|-----------------|
D|-----------------|
A|-----------------|
E|-5-x-5-x-5-x-5-5-| (x4)

(I'm lookin' for a drink...)
G|-----------------|-----------------|-----------------|-----------------|
D|-----------------|-----------------|-----------------|-----------------|
A|-----------------|-----------------|-----------------|-----------------|
E|-1-x-1-x-1-x-1-1-|-4-x-4-x-4-x-4-4-|-5-x-5-x-5-x-5-5-|-5-x-5-x-5-x-5-5-|

[Verse 2]
(Give me a bump and a withdrawal...)
G|-----------------|
D|-----------------|
A|-----------------|
E|-5-x-5-x-5-x-5-5-| (x4)

(The rapture in your ear...)
G|-----------------|----------------|
D|-----------------|----------------|
A|-----------------|----------------|
E|-1-x-1-x-1-x-1-1-|4-x-4-x-4-x-4-4-|

[Pre-chorus]
(Bloodshot eyes and you're peppermint...)
G|-----------------|-----------------|-----------------|----------------------------|
D|-----------------|-----------------|-----------------|----------------------------|
A|-----------------|-----------------|-----------------|----------------------------|
E|-1-x-1-x-1-x-1-1-|-4-x-4-x-4-x-4-4-|-1-x-1-x-1-x-1-1-|-3h4-4--3h4-4--3h4-4--3h4-4-|

(Give me one last try...)
G|-----------------|-----------------|-----------------|-----------------|
D|-----------------|-----------------|-----------------|-----------------|
A|-4-x-4-x-4-x-4-4-|-----------------|-----------------|-6-x-6-x-6-x-6-6-|
E|-----------------|-1-x-1-x-1-x-1-1-|-6-x-6-x-6-x-6-6-|-----------------|

[Chorus]
(We are the Devil's Kind...)
G|-------------|-------------|-------------|---------|
D|-------------|-------------|-------------|---------|
A|-------------|-3--3-3--3-3-|-------------|---------|
E|-4--4-4--4-4-|-------------|-1--1-1--1-1-|-1-x-3-x-| (x2)

(We are the Devil's Kind, and now I won't back down...)
G|-------------|-------------|--------------------------|--------------|------|
D|-------------|-------------|--------------------------|--------------|------|
A|-------------|-3--3-3--3-3-|-8--8-8--8-8--8--8-8--8-8-|--------------|------|
E|-4--4-4--4-4-|-------------|--------------------------|-6(x16)-9(x9)-|-REST-|

[Verse 3]
(Take me, into the water...)
G|-----------------|
D|-----------------|
A|-----------------|
E|-5-x-5-x-5-x-5-5-| (x4)

(Because I've got the shakes...)
G|-----------------|----------------|
D|-----------------|----------------|
A|-----------------|----------------|
E|-1-x-1-x-1-x-1-1-|4-x-4-x-4-x-4-4-|

[Pre-chorus]
(Bloodshot eyes and you're peppermint...)
G|-----------------|-----------------|-----------------|----------------------------|
D|-----------------|-----------------|-----------------|----------------------------|
A|-----------------|-----------------|-----------------|----------------------------|
E|-1-x-1-x-1-x-1-1-|-4-x-4-x-4-x-4-4-|-1-x-1-x-1-x-1-1-|-3h4-4--3h4-4--3h4-4--3h4-4-|

(Give me one last try...)
G|-----------------|-----------------|-----------------|-----------------|
D|-----------------|-----------------|-----------------|-----------------|
A|-4-x-4-x-4-x-4-4-|-----------------|-----------------|-6-x-6-x-6-x-6-6-|
E|-----------------|-1-x-1-x-1-x-1-1-|-6-x-6-x-6-x-6-6-|-----------------|

[Chorus]
(We are the Devil's Kind...)
G|-------------|-------------|-------------|---------|
D|-------------|-------------|-------------|---------|
A|-------------|-3--3-3--3-3-|-------------|---------|
E|-4--4-4--4-4-|-------------|-1--1-1--1-1-|-1-x-3-x-| (x2)

(We are the Devil's Kind, and now I won't back down...)
G|-------------|-------------|--------------------------|--------------|------|
D|-------------|-------------|--------------------------|--------------|------|
A|-------------|-3--3-3--3-3-|-8--8-8--8-8--8--8-8--8-8-|--------------|------|
E|-4--4-4--4-4-|-------------|--------------------------|-6(x16)-9(x9)-|-REST-|

[Solo]
G|-----------------|-----------------|-----------------|----------------------------|
D|-----------------|-----------------|-----------------|----------------------------|
A|-----------------|-----------------|-----------------|----------------------------|
E|-1-x-1-x-1-x-1-1-|-4-x-4-x-4-x-4-4-|-1-x-1-x-1-x-1-1-|-3h4-4--3h4-4--3h4-4--3h4-4-|

G|-----------------|-----------------|-----------------|-----------------|
D|-----------------|-----------------|-----------------|-----------------|
A|-4-x-4-x-4-x-4-4-|-----------------|-----------------|-6-x-6-x-6-x-6-6-|
E|-----------------|-1-x-1-x-1-x-1-1-|-6-x-6-x-6-x-6-6-|-----------------|

[Chorus]
(We are the Devil's Kind...)
G|-------------|-------------|-------------|---------|
D|-------------|-------------|-------------|---------|
A|-------------|-3--3-3--3-3-|-------------|---------|
E|-4--4-4--4-4-|-------------|-1--1-1--1-1-|-1-x-3-x-| (x2)

(We are the Devil's Kind, and now I won't back down...)
G|-------------|-------------|--------------------------|--------------|------|
D|-------------|-------------|--------------------------|--------------|------|
A|-------------|-3--3-3--3-3-|-8--8-8--8-8--8--8-8--8-8-|--------------|------|
E|-4--4-4--4-4-|-------------|--------------------------|-6(x16)-9(x9)-|-REST-|

[Outro]
G|-----------------|
D|-----------------|
A|-----------------|
E|-5-x-5-x-5-x-5-5-| (x4)


************************************

| x  Dead note
| h  Hammer-on
 

************************************

            
            
Suggest correction
Creating personal tab
Creating personal tab
You can edit any tab online and save it as your Personal.

You can edit, replace or remove any tab part or add personal notes – all changes will be seen only by you.

Personal tabs can be accessed anytime from any device, even offline.
Learn more »
Give kudos to tab author, rate the tab!
1 2 3 4 5
comments
print report bad tab
guest
You may want to rate the tab now too:
select rating
Wanna post a correction for this tab? Suggest correction