Oops, an error
Loading. Please wait.

Devils Kind Tab

version 2
version 2

Whole song

  • Tab for Devil's Kind by Billie Joe Armstrong from the movie "Ordinary World".
391 views 42 this week
1 commentread comment
1 2 3 4 5
x 4
add to favorites
launch autoscroll
font size
0
reset
how to read this tab
guitar tuner
Autoscroll
slow
fast
+/-
esc
set tempo
stop
Help us to improve Ultimate-Guitar.com Take our survey!
×
Author
About this tab version
Tab for Devil's Kind by Billie Joe Armstrong from the movie "Ordinary World". Was this info helpful? Yes No
Devil's Kind by Billie Joe Armstrong from the movie "Ordinary World".
All contributions are welcomed.

[Intro]

  G#7
e|---4----4----4---|
B|---7----7----7---|
G|---5----5----5---|
D|---4----4----4---|  
A|---6----6----6---|
E|---4----4----4---|


[Verse]

  G#7
e|---4--x--4--4--4--|--x--4--4--4--x--x---|
B|---7--x--7--7--7--|--x--7--7--7--x--x---|
G|---5--x--5--5--5--|--x--5--5--5--x--x---|
D|---4--x--4--4--4--|--x--4--4--4--x--x---| x2 and then
A|---6--x--6--6--6--|--x--6--6--6--x--x---|
E|---4--x--4--4--4--|--x--4--4--4--x--x---|


     Puke          stains              and...
  G#7
e|---4--x--4--4--4--|--x--4--4--4--x--x---|
B|---7--x--7--7--7--|--x--7--7--7--x--x---|
G|---5--x--5--5--5--|--x--5--5--5--x--x---|
D|---4--x--4--4--4--|--x--4--4--4--x--x---| 
A|---6--x--6--6--6--|--x--6--6--6--x--x---|
E|---4--x--4--4--4--|--x--4--4--4--x--x---|


     I'm looking for a drink        and a couch to call my own...
  A#5                             C#5
e|-------------------------------|----------------------------------|
B|-------------------------------|----------------------------------|
G|-------------------------------|----6---6--6--6--6---6---6--6-----|
D|---8---8--8--8--8---8---8--8---|----6---6--6--6--6---6---6--6-----|  then repeat.
A|---8---8--8--8--8---8---8--8---|----4---4--4--4--4---4---4--4-----|
E|---6---6--6--6--6---6---6--6---|----------------------------------|


[Pre-Chorus]

     Bloodshot eye                     and you're peppermint
  F5                                            G#5
e|---------------------------------------------|--------------------------------------------|
B|---------------------------------------------|--------------------------------------------|
G|---------------------------------------------|--------------------------------------------|
D|---3--3---3--3--3--3----3--3---3--3--3--3----|---6--6---6--6--6--6---6--6---6--6--6--6----|
A|---3--3---3--3--3--3----3--3---3--3--3--3----|---6--6---6--6--6--6---6--6---6--6--6--6----|
E|---1--1---1--1--1--1----1--1---1--1--1--1----|---4--4---4--4--4--4---4--4---4--4--4--4----|

 
    We can roll like dogs                from the devil
  F5          
e|--------------------------------------------|-----------------------------------|
B|--------------------------------------------|-----------------------------------|
G|--------------------------------------------|-----------------------------------|
D|---3--3---3--3--3--3----3--3---3--3--3--3---|----5/6-6--5/6-6--5/6-6--5/6-6-----|
A|---3--3---3--3--3--3----3--3---3--3--3--3---|----5/6-6--5/6-6--5/6-6--5/6-6-----|
E|---1--1---1--1--1--1----1--1---1--1--1--1---|----3/4-4--3/4-4--3/4-4--3/4-4-----|


     Gimme one last try                 for your love tonight
  C#5                                          F5
e|--------------------------------------------|----------------------------------------------|
B|--------------------------------------------|----------------------------------------------|
G|---6--6---6--6--6--6----6--6---6--6--6--6---|----------------------------------------------|
D|---6--6---6--6--6--6----6--6---6--6--6--6---|---3--3---3--3--3--3----3--3---3--3--3--3-----|
A|---4--4---4--4--4--4----4--4---4--4--4--4---|---3--3---3--3--3--3----3--3---3--3--3--3-----|
E|--------------------------------------------|---1--1---1--1--1--1----1--1---1--1--1--1-----|

    
     I'll be the king forever                   And you can be my sunshine
  A#5                                          D#5
e|--------------------------------------------|------------------------------------|
B|--------------------------------------------|------------------------------------|
G|--------------------------------------------|---8---8-8-8-8-8-8-8--8-8-8-8-8-----|
D|---8--8---8--8--8--8----8--8---8--8--8--8---|---8---8-8-8-8-8-8-8--8-8-8-8-8-----|
A|---8--8---8--8--8--8----8--8---8--8--8--8---|---6---6-6-6-6-6-6-6--6-6-6-6-6-----|
E|---6--6---6--6--6--6----6--6---6--6--6--6---|------------------------------------|


[Chorus]

     We are the             devil's                 kind
  C#5                      C5                       F5
e|------------------------|------------------------|---------------------------------------|
B|------------------------|------------------------|---------------------------------------|
G|------------------------|---5--5---5--5--5--5----|---------------------------------------|
D|---6--6---6--6--6--6----|---5--5---5--5--5--5----|---3--3---3--3--3--3----3---5---6------| x3
A|---6--6---6--6--6--6----|---3--3---3--3--3--3----|---3--3---3--3--3--3----3---5---6------|
E|---4--4---4--4--4--4----|------------------------|---1--1---1--1--1--1----1---3---4------|

  
(For the last "...kind")

...kind                And now I won't back down          I said I won't back down     I am the devil's kind
  F5                G5  A#5                            C5  C#5                       D#5
e|---------------------|----------------------------------|-------------------------|--------|
B|---------------------|----------------------------------|-------------------------|--------|
G|---------------------|----------------------------------|-------------------------|--8-----|
D|---3-3-3-3-3-3-3-3-5-|-8-8-8-8-8-8-8-8-8-8-8-8-8-8-8-10-|-11-11-11-11-11-11-11-11-|--8-----|
A|---3-3-3-3-3-3-3-3-5-|-8-8-8-8-8-8-8-8-8-8-8-8-8-8-8-10-|-11-11-11-11-11-11-11-11-|--6-----|
E|---1-1-1-1-1-1-1-1-3-|-6-6-6-6-6-6-6-6-6-6-6-6-6-6-6-8--|-9--9--9--9--9--9--9--9--|--------|
     (x7)               (x15)                              (x8)


[Solo]

e|--------------------|----------------|-----------------|-----------------------------------------------|
B|--------------------|----------------|-------9---------|-----------------------------------------------|
G|---8b10-8b10-8b10~--|--6b8-6b8-6b8~--|---8b10---8b10~--|---12/13-13--12/13-13--12/13-13--12/13-13------|
D|--------------------|----------------|-----------------|-----------------------------------------------|
A|--------------------|----------------|-----------------|---10/11-11--10/11-11--10/11-11--10/11-11------|
E|--------------------|----------------|-----------------|-----------------------------------------------|

e|----------9-------------|----------13--------------|--------6--6-6---|-----------------------------|
B|----------9--11--9------|----------13--15--13------|--------6--6-6---|-----------------------------|
G|-------------11--9h10---|--------------15--13h14---|-----------------|--8/10-10-10--8/10-10-10-----|
D|------------------------|--------------------------|-----------------|-----------------------------|
A|------11----------------|------15------------------|-----8-----------|--6/8--8--8---6/8--8--8------|
E|---9--------------------|--13----------------------|--6--------------|-----------------------------|


After the solo, play the chorus again

[Outro]

  G#7
e|---4--x--4--4--4--|--x--4--4--4--x--x---|
B|---7--x--7--7--7--|--x--7--7--7--x--x---|
G|---5--x--5--5--5--|--x--5--5--5--x--x---|
D|---4--x--4--4--4--|--x--4--4--4--x--x---| x3
A|---6--x--6--6--6--|--x--6--6--6--x--x---|
E|---4--x--4--4--4--|--x--4--4--4--x--x---|


  G#7
e|---4--x--4--4--4----x--4--4--4----|
B|---7--x--7--7--7----x--7--7--7----|
G|---5--x--5--5--5----x--5--5--5----|
D|---4--x--4--4--4----x--4--4--4----| 
A|---6--x--6--6--6----x--6--6--6----|
E|---4--x--4--4--4----x--4--4--4----|



************************************

| x  Dead note
| /  Slide up
| b  Bend
| ~  Vibrato
| h  Hammer-on

************************************
Suggest correction
comments
print report bad tab
1 comment total.
0 reply
lecunea 10 Nov 04, 2016 10:18 PM

Finally one with the solo, and it sounds great!

guest
You may want to rate the tab now too:
select rating
Wanna post a correction for this tab? Suggest correction