Oops, an error
Loading. Please wait.

Do Da Da Tab

version 2
version 2

Whole song

Interactive

1,040 views 1 this week
1 commentread comment
1 2 3 4 5
please rate
add to favorites
launch autoscroll
font size
0
reset
how to read this tab
guitar tuner
Autoscroll
slow
fast
+/-
esc
set tempo
stop
Help us to improve Ultimate-Guitar.com Take our survey!
×
Author
Green Day - Do da da
Tabbed by Bevlander

Standard Tuning

Intro
E|--------------------------------------------------------------|
B|--------------------------------------------------------------|
G|----------8-8-8-----------8-8-8-----------8-8-8--6-6-6--8-8-8-|
D|-6-6-6-6--8-8-8--6-6-6-6--8-8-8--6-6-6-6--8-8-8--6-6-6--6-6-6-|
A|-6-6-6-6--6-6-6--6-6-6-6--6-6-6--6-6-6-6--6-6-6--4-4-6--6-6-6-|
E|-4-4-4-4---------4-4-4-4---------4-4-4-4----------------------|

Verse
E|---------------------------------------------|
B|---------------------------------------------|
G|----------8-8-8-8--6-6-6-6-----------8-8-8-8-|
D|-6-6-6-6--8-8-8-8--6-6-6-6--6-6-6-6--8-8-8-8-|  x2
A|-6-6-6-6--6-6-6-6--4-4-4-4--6-6-6-6--6-6-6-6-|
E|-4-4-4-4--------------------4-4-4-4----------|

Chorus
E|------------------------------------------------------------------------|
B|------------------------------------------------------------------------|
G|----------6-6-6-6--------------------8-8-8-8-----------6-6-6-6----------|
D|-3-3-3-3--6-6-6-6--3-3-3-3--6-6-6-6--8-8-8-8--3-3-3-3--6-6-6-6--3-3-3-3-|
A|-3-3-3-3--4-4-4-4--3-3-3-3--6-6-6-6--6-6-6-6--3-3-3-3--4-4-4-4--3-3-3-3-|
E|-1-1-1-1-----------1-1-1-1--4-4-4-6-----------1-1-1-1-----------1-1-1-1-|

E|--------------------------------------------------|
B|--------------------------------------------------|
G|----------8-8-8-----------8-8-8-----------8-8-8-8-|
D|-6-6-6-6--8-8-8--6-6-6-6--8-8-8--6-6-6-6--8-8-8-8-|
A|-6-6-6-6--6-6-6--6-6-6-6--6-6-6--6-6-6-6--6-6-6-6-|
E|-4-4-4-4---------4-4-4-4---------4-4-4-4----------|

End
E|---||
B|---||
G|---||
D|-6-||
A|-6-||
E|-4-||

Order

Intro
Verse
Chorus
Verse
Chorus
Intro x2
Chorus
End
Suggest correction
Give kudos to tab author, rate the tab!
1 2 3 4 5
comments
print report bad tab
1 comment total.
0 reply
Bloodslider 137 wrote on January 19 2016, 01:08 pm

In the chorus, the second line should go:
E|--------------------------------------------------|
B|--------------------------------------------------|
G|----------8-8-8-----------8-8-8--6-6-6-6--8-8-8-8-|
D|-6-6-6-6--8-8-8--6-6-6-6--8-8-8--6-6-6-6--8-8-8-8-|
A|-6-6-6-6--6-6-6--6-6-6-6--6-6-6--4-4-4-4--6-6-6-6-|
E|-4-4-4-4---------4-4-4-4--------------------------|

guest
You may want to rate the tab now too:
select rating
Please do not post tabs as comments. Select "correction" instead!