Oops, an error
Loading. Please wait.

Dont Leave Me Bass Tab

version 1
version 1

Whole song

Interactive

807 views 3 this week
3 commentsread comments
1 2 3 4 5
please rate
add to favorites
launch autoscroll
font size
0
reset
guitar tuner
Autoscroll
slow
fast
+/-
esc
set tempo
stop
Help us to improve Ultimate-Guitar.com Take our survey!
×
Don't leave me:


Intro: 
|----------------------------------|
|----------------------------------|
|-R-13/12/11-10/9/8-7/6/5-4/3/2----|
|----------------------------------|
Verse:
|----------------------------------|
|----------------------------------|
|-2-2-2-2-0-0-0-0-5-5-5-2-2-2-2----|
|----------------------------------|
Chorus:     																								After 1st chorus:
|----------------------------------|-----4--|
|----------------------------------|---4----|
|-----------------1-1-1-1-1-1-1-1--|-2------|
|-2-2-2-2-2-2-2-2------------------|--------|


that's all i have time for now but if anyone has the btab for:
The One I Want
Tight Wad Hill																																		-       -
My Generation                                  | |     | |
80					                                        | | - - | |
16                                             |_|  |  | |
Knowledge or																                  /  _| |  | |
Chump , please post them thanks - Adam       |  |  -  -  |
                                              \  \       /
                                               ----------
Suggest correction
Give kudos to tab author, rate the tab!
1 2 3 4 5
comments
print report bad tab
3 comments total.
0 reply
RSOB Bass 10 wrote on September 2 2007, 01:40 am

chorus is wrong.

0 reply
CaptainJack666 80 wrote on October 4 2007, 11:35 am

Hey man. Not sure if your frets are right but if they are id say the verse goes like this

---------------------------
---------------------------
-2-2-0-0-5-5-2-0-2-0-------
---------------------------

Get in touch, tell me what you think!!

0 reply
Urias Brondo 10 wrote on August 13 2016, 12:57 pm

El coro es E-- 555555222222

guest
You may want to rate the tab now too:
select rating
Wanna post a correction for this tab? Suggest correction