Oops, an error
Loading. Please wait.

Dont Leave Me Bass Tab

version 2
version 2

Whole song

Interactive

971 views 1 this week
no commentswrite comment
1 2 3 4 5
2 more votes to show rating
add to favorites
launch autoscroll
font size
0
reset
guitar tuner
Autoscroll
slow
fast
+/-
esc
set tempo
stop
Help us to improve Ultimate-Guitar.com Take our survey!
×
----------------------------------------------------------------------------
                          Don't Leave Me-Green Day
----------------------------------------------------------------------------
Album:1,039/Smoothed Out Slappy Hours
Tuning:Standard

Tabbed by:WARNINGnimrod12
Email:WARNINGnimrod182@aim.com




  INTRO

   G|-----------------------------------------------------------------|
   D|--------------------|--------------------------------------------|
   A|-----(GUITAR)-------|---17///////////-2----0-0---5-5--2--0-2-0---|
   E|-----------------------------------------------------------------|


   G|----------------|
   D|----------------|
   A|---2----0-0-5---|
   E|----------------|


  VERSE 
  
   G|---------------------------------------------------------|
   D|---------------------------------------------------------|
   A|---2--2--0--0--5-5--2--0-2-0-2--2--0--0--5-5--2--0-2-0---|
   E|---------------------------------------------------------|


   G|--------------------------------------------|
   D|--------------------------------------------|
   A|---2--2--0--0--5-5--2--0-2-0-2--2--0--0-5---|
   E|--------------------------------------------|


   G|---------------------------------------------------------|
   D|---------------------------------------------------------|
   A|---2--2--0--0--5-5--2--0-2-0-2--2--0--0--5-5--2--0-2-0---|
   E|---------------------------------------------------------|


   G|-----------------------------------------------------|
   D|-----------------------------------------------------|
   A|---2--2--0--0--5-5--2--0-2-0-2--2--0--0--5-5--2--2---|
   E|-----------------------------------------------------|


  CHORUS x2

   G|-------------------------------------------------------------|
   D|-------------------------------------------------------------|
   A|-------------------------------------------------------------|
   E|---5--5--5-5-5-5--5-5--5-5-5-5-2--2--2-2-0-2--2-2--2-2-2-2---|

   
   
           Play this right after the first chorus.
       (the 9 and 7 can be heard if you listen closely)
   G|-------------------------------------------------7---|
   D|----------------------------------------------9------|
   A|---2--2--0--0--5-5--2--0-2-0-2--2--0--0--5-----------|
   E|-----------------------------------------------------|


  VERSE 2

  CHORUS 2 x4

  BRIDGE

   G|---------------------------------------------------------|
   D|---------------------------------------------------------|
   A|---2--2--0--0--5-5--2--0-2-0-2--2--0--0--5-5--2--0-2-0---| x2
   E|---------------------------------------------------------|


   G|-------------------------------------------------------------|
   D|-------------------------------------------------------------|
   A|-------------------------------------------------------------| x2
   E|---5--5--5-5-5-5--5-5--5-5-5-5-2--2--2-2-0-2--2-2--2-2-2-2---|


   G|-------------------------------------------------------------|
   D|-------------------------------------------------------------|
   A|-------------------------------------------------------------| x2
   E|---5~--------------------------2---------0-2--2-2--2-2-2-2---|


   G|---------------------------------------------|
   D|---------------------------------------------|
   A|---2--2--0--0--5-5--2--0-2-0-2--2--0--0--5---|
   E|---------------------------------------------|


  VERSE 3

  CHORUS 3 x4

  OUTRO

   G|------------------------|
   D|------------------------|
   A|---2--2--0--0--5-5--0---|
   E|------------------------|



   ORDER:

   INTRO
   VERSE
   CHORUS x2
   VERSE 2
   CHORUS 2 x4
   BRIDGE
   VERSE 3
   CHORUS 3 x4
   OUTRO
Suggest correction
Give kudos to tab author, rate the tab!
1 2 3 4 5
comments
print report bad tab
guest
You may want to rate the tab now too:
select rating
Wanna post a correction for this tab? Suggest correction