Oops, an error
Loading. Please wait.

Dont Wanna Fall In Love Bass Tab

version 1
version 1

Whole song

Interactive

983 views 1 this week
1 commentread comment
1 2 3 4 5
x 3
add to favorites
launch autoscroll
font size
0
reset
guitar tuner
Autoscroll
slow
fast
+/-
esc
set tempo
stop
Help us to improve Ultimate-Guitar.com Take our survey!
×
Tuning
E A D G B E
        Don't want to fall in love bass tab


Verse

G---------------
D---------------
A-6-6-6-6--6--6-
E---------------

Chorus

G-------------------------------------------------------------
D-------------------------------------------------------------
A-----------------------6-6-6-6--6--6------------6----------6-
E-3-4-4-4-4-4-4-4-4-5-6----------------6-6-6-6-6------6-8-6---

Verse(Before solo)

G---------------------------------
D-------------------5-6-7-8-6-5---
A-6-6-6-6--6--6---6-------------6-
E---------------------------------

Verse under solo
====
Suggest correction
Give kudos to tab author, rate the tab!
1 2 3 4 5
comments
print report bad tab
1 comment total.
0 reply
therosevaults 10 Jul 19, 2010 11:55 AM

this is 100% right. but only if you are playing it in half a step down, move it up a semttone if you wanna play it in standard

guest
You may want to rate the tab now too:
select rating
Wanna post a correction for this tab? Suggest correction