Oops, an error
Loading. Please wait.

Dry Ice Tab

version 1
version 1

Solo

Whole song

Interactive

9,588 views 18 this week
3 commentsread comments
1 2 3 4 5
excellent!
x 5
add to favorites
launch autoscroll
font size
0
reset
how to read this tab
guitar tuner
Autoscroll
slow
fast
+/-
esc
set tempo
stop
Help us to improve Ultimate-Guitar.com Take our survey!
×
Tabbed by: Sam Champness
Email:

Tuning:

e|-----------------------------------------------5--------5---------|
B|----------------------------------4-/-7—(7)-------7-8------8-7----|
G|-2--2-2-2-2--4-4b-(4)--2-2--2-2-----------------------------------|
D|------------------------------------------------------------------|
A|------------------------------------------------------------------|
E|------------------------------------------------------------------|

e|--5-------5-------------------------------------------------------|
B|-----7-8-----8-8--------------------------------------------------|
G|-------------------2--2-2-2-2--4-2—4b---4--2----------------------|
D|----------------------------------------------4-4---2---4-\-2-----|
A|------------------------------------------------------------------|
E|------------------------------------------------------------------|

e|-------------------------------------2----------------------------|
B|----------------------------------2------------------------14-17b-|
G|-----------2-----2-4-2------2—4b-----------4b-(4)-/--16b----------|
D|-----2--4-----4----------4----------------------------------------|
A|-4----------------------------------------------------------------|
E|------------------------------------------------------------------|

e|-------------14-17b—(17)-17--14---------14-14--17-16-14-----------|
B|-17b----17-----------------------17b---------------------17-15-14-|
G|------------------------------------------------------------------|
D|------------------------------------------------------------------|
A|------------------------------------------------------------------|
E|------------------------------------------------------------------|


e|-----------------------------------------14-----------------------|
B|-----------------------------------------14--14--------14-(14)----|
G|-16--14-14-14—-16-\-14-14-14—16b---(16)-----------16b-------------|
D|------------------------------------------------------------------|
A|------------------------------------------------------------------|
E|------------------------------------------------------------------|

e|----------5---5---5-5-5----------2------2----------10-------------|
B|-\-5---5----5-----5-5-5-\-2-(2)-----2------2-----------10---------|
G|--------------------------------------3------3---11--------11-----|
D|------------------------------------------------------------------|
A|------------------------------------------------------------------|
E|------------------------------------------------------------------|

e|-10-----------------12-------12-----------------------------------|
B|-----10----------------12-------12--------------------------------|
G|---------11-11-/-13-------13-------13-----------------------------|
D|------------------------------------------------------------------|
A|------------------------------------------------------------------|
E|------------------------------------------------------------------|
Suggest correction
comments
print report bad tab
3 comments total.
+2 reply
XxGibsonSGxX 240 wrote on July 9 2006, 10:39 pm

Bravo chap. Sounds superb. Looked at the one in the 1,039/Smooth tab book, and I believe it's a match. Although I do wish a decent tab of the full song was out. *wink*

+2 reply
EpiTelePhone 21 wrote on November 16 2008, 01:44 pm

its a half step down ent it

even from that

+2 reply
EpiTelePhone 21 wrote on November 16 2008, 01:44 pm

five stars anyway

guest
You may want to rate the tab now too:
select rating
Wanna post a correction for this tab? Suggest correction