Oops, an error
Loading. Please wait.

East Jesus Nowhere Chords

version 3
version 3

Whole song

Video

4,110 views 3 this week
2 commentsread comments
1 2 3 4 5
excellent!
x 4
add to favorites
launch autoscroll
font size
0
reset
transpose
0
reset
display chords
guitar tuner
Tab Pro tools
  • play this tab
  • loop segment
  • change instrument
  • show fretboard
  • metronome
×
Best way to learn
"East Jesus Nowhere"
Autoscroll
slow
fast
+/-
esc
set tempo
stop
Contributor
Difficulty
novice
This is how I play it. Enjoy! Btw, Green day Rocks!

Intro: Em-G-Em-D-Em x8 D-A

Vers 1
Em                             D A
Raise your hands now to testify
Em                               D A
Your confession will be crucified
Em                          D A
You're a sacrificial suicide
Em                              D A
Like a dog that's been sodomized
Em G Em D 
(Stand up!) 
Em
All the white boys
Em G Em D
(Sit down!)
Em
All the black girls
Em G Em D
(Stand up!)
D
You're the soldiers
Em G Em D
(Sit down!)
Em             D
Of the new world

Refrain 1
B                          D A
Put your faith in a miracle
B                          D A
And it's non-denominational
B                               D A
Join the choir, we'll be singing
B                D
In the church of wishful thinking

Chorus 1
E                G
A fire burns today
A                C      B
Of blasphemy and genocide
E                 G
The sirens of decay
A                         C      B 
Will infiltrate the faith fanatics

Em-G-Em-D-Em x4 D-A

Vers 2.
Em          G                    B
Oh bless me Lord for I have sinned
Em           G               B
It's been a lifetime since I last confessed
Em             G            B
I threw my crutches in «the river og a shadow of doubt»
Em             G             B          D A
And I'll be dressed up in my Sunday best

Refrain 2 
B                          D A
Say a prayer for the family
B                       D A
Drop a coin for humanity
B                                D A
Ain't this uniform so flattering?
B                              D                         
I never asked you a god damn thing!

Chorus 2
E                G
A fire burns today
A                C      B
Of blasphemy and genocide
E                 G
The sirens of decay
A                          C      B
Will infiltrate the faith fanatics

Em-G-Em-D-Em x4 D-A

Bridge
Em
Don't test me
Em
Second guess me
Em
Protest me 
Em                Em D A
You will disappear

Refrain 3
B                                     D A
I want to know who's allowed to breed
B                                     D A
All the dogs who never learned to read
B                     D A
Missionary politicians
B                   D
And the cops of the new religion!

Guitar solo
       Em           G            A         C     B
e|-0-----0--2-|-3-----3----|-5-----5--7-|-8---|-7---|
B|----0-------|----3-----3-|----5-------|---8-|---7-|
G|------------|------------|------------|-----|-----|
D|------------|------------|------------|-----|-----|
A|------------|------------|------------|-----|-----|
E|------------|------------|------------|-----|-----|

         Em              G                A            
     D
e|-12------12--14-|-10-----10----|-12------12--14-|-15-----|-14--|
B|-----12---------|-----8------8-|-----10---------|-----15-|-----|
G|----------------|--------------|----------------|--------|-----|
D|----------------|--------------|----------------|--------|-----|
A|----------------|--------------|----------------|--------|-----|
E|----------------|--------------|----------------|--------|-----|

      Em          F    Em
e|-0--3-7--10-|-8--5-|-4-|
B|------------|------|---|
G|------------|------|---|
D|------------|------|---| x4
A|------------|------|---|
E|------------|------|---|

Chorus3 (slow)
E                G
A fire burns today
A                C      B
Of blasphemy and genocide
E                 G
The sirens og decay
A               C       B
Will infiltrate the inside

Outtro
Em-G-Em-D-Em x 4 D-A-Em(Hold) 
Yeah!
comments
print report bad tab
2 comments total.
0 reply
doublevoid wrote on June 14 2012, 06:38 pm

Pretty sure the part after the chorus should go like this:

e|-0--4-7--10-|-8--5-|-4-|
B|------------|------|---|
G|------------|------|---|
D|------------|------|---| x4
A|------------|------|---|
E|------------|------|---|

Otherwise, great tab!

0 reply
laniezarthur wrote on December 12 2014, 04:29 pm

Em in the chorus

I want to post or [tab]
guest
You may want to rate the tab now too:
select rating
Please do not post tabs as comments. Select "correction" instead!