Oops, an error
Loading. Please wait.

East Jesus Nowhere Tab

version 4
version 4
9,431 views 3 this week
2 commentsread comments
1 2 3 4 5
excellent!
x 4
add to favorites
launch autoscroll
font size
0
reset
how to read this tab
guitar tuner
Autoscroll
slow
fast
+/-
esc
set tempo
stop
Help us to improve Ultimate-Guitar.com Take our survey!
×
Author
_____________________________________________________________________________

East Jesus Nowhere
_____________________________________________________________________________

Tuning: Standard

***********
Notes:
***********

I have submitted this several times because of mistakes.
Now I have corrected these mistakes and it is right! lol


*************
Intro:
*************
                           x7
E||-------------------------||
B||-------------------------||
G||-9-/-12-9-7-9----xx-xxxx-||
D||-9-/-12-9-7-9----xx-xxxx-||
A||-7-/-10-7-5-7----xx-xxxx-||
E||-------------------------||

E||------------------|-------||
B||------------------|-------||
G||-9-/-12-9-7-9--xx-|-7---9-||
D||-9-/-12-9-7-9--xx-|-7-7-9-||
A||-7-/-10-7-5-7--xx-|-5-7-7-||
E||------------------|---5---||

*************
Verse:
*************

Raise your hands now to testify
E||--------------|-------||
B||--------------|-------||
G||-xxx-xxxx-xxx-|-7---9-||
D||-xxx-xxxx-xxx-|-7-7-9-||
A||-xxx-xxxx-xxx-|-5-7-7-||
E||--------------|---5---||

(The whole verse with different lyrics)

Then:

Stand Up!- All the white boys
E||-------------------------||
B||-------------------------||
G||-9-/-12-9-7-9----xx-xxxx-||
D||-9-/-12-9-7-9----xx-xxxx-||
A||-7-/-10-7-5-7----xx-xxxx-||
E||-------------------------||

Sit down!- And the black girls
E||-------------------------||
B||-------------------------||
G||-9-/-12-9-7-9----xx-xxxx-||
D||-9-/-12-9-7-9----xx-xxxx-||
A||-7-/-10-7-5-7----xx-xxxx-||
E||-------------------------||


*************
Pre Chorus:
*************

Put your faith in a miracle
E||-----------------------||
B||-----------------------||
G||-----------------7-----||
D||-9-999-9999-999--7-7-9-||
A||-9-999-9999-999--5-7-9-||
E||-7-777-7777-777----5-7-||

(Same guitar with different lyrics and then:)

E||-------------||
B||-------------||
G||-77-77-77-77-||
D||-77-77-77-77-||
A||-55-55-55-55-||
E||-------------||

*************
Chorus:
*************

A fire burns today, of Blasphemy and Genocide.
The sirens of decay, will infiltrate the faith fanatics 
                                                 x2
E||---0------|-----------------------------------||
B||-0-0-0000-|-----------------------------------||
G||-1-1-1111-|------------2-222-222----55-x-44-x-||
D||-2-2-2222-|-5-555-555--2-222-222----55-x-44-x-||
A||-2-2-2222-|-5-555-555--0-000-000----33-x-22-x-||
E||-0-0-0000-|-3-333-333-------------------------||

*************
Post Chorus:
*************

-------------
Guitar One:
-------------
                           x4
E||-------------------------||
B||-------------------------||
G||-9-/-12-9-7-9----xx-xxxx-||
D||-9-/-12-9-7-9----xx-xxxx-||
A||-7-/-10-7-5-7----xx-xxxx-||
E||-------------------------||

-------------
Guitar Two:
-------------
                              x2
E||----------------------------||
B||----------------------------||
G||-9--13--16--19--17---14--13-||
D||----------------------------||
A||-7--11--14--17--15---12--11-||
E||----------------------------||

*************
Verse 2:
*************

Bass

*************
Pre Chorus:
*************

Say a prayer for the family
E||---------------------||
B||---------------------||
G||-7-------------------||
D||-7-7--9-xxx-xxxx-xxx-||
A||-5-7--9-xxx-xxxx-xxx-||
E||---5--7-xxx-xxxx-xxx-||

*************
Interlude:
*************

Don't Test Me,
Second Guess me,
                   x2
E||------------------||
B||------------------||
G||-999-999-999-9999-||
D||-999-999-999-9999-||
A||-777-777-777-7777-||
E||------------------||

..Protest me
E||------------------||
B||------------------||
G||-999-999-999-9999-||
D||-999-999-999-9999-||
A||-777-777-777-7777-||
E||------------------||

You will disappear
E||--------------||
B||--------------||
G||-9--9--9--7---||
D||-9--9--9--7-7-||
A||-7--7--7--5-7-||
E||------------5-||

*************
Solo:
*************

-------------
Guitar One:
-------------
                                                x2
E||---0------|-----------------------------------||
B||-0-0-0000-|-----------------------------------||
G||-1-1-1111-|------------2-222-222----55-x-44-x-||
D||-2-2-2222-|-5-555-555--2-222-222----55-x-44-x-||
A||-2-2-2222-|-5-555-555--0-000-000----33-x-22-x-||
E||-0-0-0000-|-3-333-333-------------------------||

-------------
Guitar Two:
-------------

E||------------------|-------------------------||
B||-5---5-7--8---8---|-10---10-12-13-----12----||
G||---4--------7---8-|----9-----------12----11-||
D||------------------|-------------------------||
A||------------------|-------------------------||
E||------------------|-------------------------||

E||---------------------------|-------------------------||
B||-17----17--19--15----15----|-17----17-19-20-19--17~b-||
G||----16------------12----12-|----16-------------------||
D||---------------------------|-------------------------||
A||---------------------------|-------------------------||
E||---------------------------|-------------------------||

*************
Bridge:
*************

-------------
Guitar One:
-------------
                  x4
E||----------------||
B||----------------||
G||-9-9b-9---------||
D||----------------||
A||-7-7b-7---------||
E||----------------||

-------------
Guitar Two:
-------------

(Tremolo Pick)
                      x4
E||---------10---------||
B||---9--12----13-10-9-||
G||-9------------------||
D||--------------------||
A||--------------------||
E||--------------------||

*******************
Another Interlude:
*******************

A fire burns today, Of Blasphemy and Genocide,
The sirens of decay, will infiltrate the Inside
E||---------------------||
B||-9~--12~-14~-17~-16~-||
G||-9~--12~-14~-17~-16~-||
D||-9~--12~-14~-17~-16~-||
A||-7~--10~-12~-15~-14~-||
E||---------------------||

************
Outro:
************

At the very end:

E||-----0000-||
B||-----0000-||
G||-9---0000-||
D||-9---2222-||
A||-7---2222-||
E||-----0000-||

Suggest correction
What's this?
You can suggest a correction to this tab. Community and Mods will review your correction and vote to approve or reject it.
comments
print report bad tab
2 comments total.
0 reply
GDrock! 69 wrote on June 18 2009, 03:52 am

hey! good work! this tab is great! a few parts that maybe could be a bit more clear, but apart from that its fine!

0 reply
guitarfreak3465 40 wrote on June 24 2009, 06:59 am

sounds good to me good tab 5*

guest
You may want to rate the tab now too:
select rating
Please do not post tabs as comments. Select "correction" instead!