Oops, an error
Loading. Please wait.

East Jesus Nowhere Tab

version 5
version 5
8,677 views 1 this week
1 commentread comment
1 2 3 4 5
x 4
add to favorites
launch autoscroll
font size
0
reset
how to read this tab
guitar tuner
Autoscroll
slow
fast
+/-
esc
set tempo
stop
Help us to improve Ultimate-Guitar.com Take our survey!
×
Author
-------------------------------------------------------------------------------
                             East Jesus Nowhere - Green Day
-------------------------------------------------------------------------------
Tabbed by: UponTheShores
Email: UponTheshores@hotmail.co.uk

Tuning: Standard

Guitar 1   : Jason White
Guitar 2   : Billie joe Armstrong
Bass Guitar: Mike Dirnt


Intro: Light Gain, I have it on my od 1 channel, until the rest of the band
       come in

  Do This Bit 4 Times            Then This Bit 3 Times      Until This
  (Guitar One)                   (Both Guitars)    
e|-------------xx----xx----------------------xx----xx------------------------|
B|-------------xx----xx----------------------xx----xx------------------------|
G|-------------xx----xx----------9/12/9/7/9--xx----xx------9/12/9/7/9/-------|
D|--9/12/9/7/9----xx-------------9/12/9/7/9-----xx---------9/12/9/7/9/-------|
A|--7/10/7/5/7----xx-------------7/10/7/5/7-----xx---------7/10/7/5/7/-------|
E|----------------xx----------------------------xx---------------------------|


Verse: Same Settings As The Second Half Of The Intro

  Listen For Timing On
  The Muting     
  (Both Guitars)       
e|--------xx----xx----xx---------------------xx----xx------------------------|
B|--------xx----xx----xx---------------------xx----xx------------------------|
G|--------xx----xx----xx---------------------xx----xx------------------------|
D|--7---9----xx----xx------------9/12/9/7/9-----xx---------------------------|
A|--5-7-7----xx----xx------------7/10/7/5/7-----xx---------------------------|
E|----5------xx----xx---------------------------xx---------------------------|
"Raise your hands..."           "Stand Up, all the..."
 

Pre-Chorus:
 
  This Bit Leads Straight       Then The Last Time,
  In From The Previous Riff     This
  (Both Guitars)
e|---------------------------------------------------------------------------|
B|---------------------------------------------------------------------------|
G|--7---------------------------7------------77777777------------------------|
D|--7-7-999999999999------------7-7-99999999-77777777------------------------|
A|--5-7-999999999999------------5-7-99999999-55555555------------------------|
E|----5-777777777777--------------5-77777777---------------------------------|


Chorus:

  Make Sure You Hit The Open Notes In The E Minor Chord, To Add The Extra 
  Edge To It
  (Both Guitars)
e|--000000----------------------------000000---------------------------------|
B|--000000----------------------------000000---------------------------------|
G|--000000----------222222--555--444--000000----------222222--555--777-------|
D|--222222--555555--222222--555--444--222222--555555--222222--555--777-------|
A|--222222--555555--000000--333--222--222222--555555--000000--333--555-------|
E|--000000--333333--------------------000000--333333-------------------------|


Bridge (Interlude): Guitar one-like the intro setting, but with slightly more
                               gain
                    Guitar two-stay on the heavy setting, Gutiar two plays
                               the intro riff 

  Let Each Note Ring, Play This Twice        Intro Riff          Both End On
  (Guitar One)                              (Guitar two)       (Both Guitars)
e|----------------------------------------------------xx----xx---------------|
B|----------------------------------------------------xx----xx---------------|
G|--9/13/16/19/17/14/13/------------------9/12/9/7/9--xx----xx---------7-----|
D|--x/x-/x-/x-/x-/x-/x-/------------------9/12/9/7/9-----xx------------7--7--|
A|--7/11/14/17/15/12/11/------------------7/10/7/5/7-----xx------------5--7--|
E|-------------------------------------------------------xx---------------5--|


Verse 2: This bit is obviously only bass, so heres the bass part

  Play This Bit Twice                      Then this Bit Once
  (Bass Guitar)
G|---------------------------------------------------------------------------|
D|------------------------00-------00------2-2-2222---------------00-------00| 
A|------------------2-2-22---2-2-22-------------------------2-2-22---2-2-22--|
E|0-0-0000-3-3-3333---------------------------------3-3-3333-----------------|

                                                   Come In Right After Bass
                                                   Finishes
                                                  (Both Guitars)
  Then This Bit Again                       e|-------------------------------|
  (Bass Guitar)                             b|-------------------------------|
G|---------------------------------------------------7-----------------------|
D|------------------------00-------00----------------7-7---------------------|
A|------------------2-2-22---2-2-22------------------5-7---------------------|
E|0-0-0000-3-3-3333------------------------------------5---------------------|


Pre Chorus 2:

  Three Times                   Then This Once
  (Both Guitars)                (Both Guitars)
e|--------xx----xx----xx-----------------------------------------------------|
B|--------xx----xx----xx-----------------------------------------------------|
G|-7---9--xx----xx----xx---------7--------77777777---------------------------|
D|-7-7-9-----xx----xx------------7-7-9999-77777777---------------------------|
A|-5-7-7-----xx----xx------------5-7-9999-55555555---------------------------|
E|---5-------xx----xx--------------5-7777------------------------------------|

Chorus Again:

  Play It The Same As Before
  (Both Guitars)
e|--000000----------------------------000000---------------------------------|
B|--000000----------------------------000000---------------------------------|
G|--000000----------222222--555--444--000000----------222222--555--777-------|
D|--222222--555555--222222--555--444--222222--555555--222222--555--777-------|
A|--222222--555555--000000--333--222--222222--555555--000000--333--555-------|
E|--000000--333333--------------------000000--333333-------------------------|


Bridge (Interlude)

  Tremolo Picking This Time                  Same As Before
  (Guitar One)                               (Guitar two)      
e|-------------------------------------------------------xx-----xx-----------|
B|-------------------------------------------------------xx-----xx-----------|
G|--9/13/16/19/17/14/13/---------------------9/12/9/7/9--xx-----xx-----------|
D|--x/x-/x-/x-/x-/x-/x-/---------------------9/12/9/7/9------xx--------------|
A|--7/11/14/17/15/12/11/---------------------7/10/7/5/7------xx--------------|
E|-----------------------------------------------------------xx--------------|


Breakaway Riff (couldn't think of a name for it):


  Do This Bit Three Times                Then This, Listen For Timing
  (Both Guitars)                         (Both Guitars)
e|---------------------------------------------------------------------------|
B|---------------------------------------------------------------------------|
G|-999999999999--------------------------9---9---9---------------------------|
D|-999999999999--------------------------9---9---9---------------------------|
A|-777777777777--------------------------7---7---7---------------------------|
E|---------------------------------------------------------------------------|


Pre Chorus 3:

  Three Times                   Then This once
  (Both Guitars)                (Both Guitars)
e|--------xx----xx----xx-----------------------------------------------------|
B|--------xx----xx----xx-----------------------------------------------------|
G|-7---9--xx----xx----xx---------7--------77777777---------------------------|
D|-7-7-9-----xx----xx------------7-7-9999-77777777---------------------------|
A|-5-7-7-----xx----xx------------5-7-9999-55555555---------------------------|
E|---5-------xx----xx--------------5-7777------------------------------------|


Guitar Solo: The Backing To This Is Just Guitar Two Playing The Chorus Chords
  I believe a boost is being used on this
  (Guitar one)
e|----------------------------------------------12----12-14-------------12---|
B|-----------------------10---10-12-13----12-------12-------15----15---------|
G|--9---9-11-12----12-------9----------12----11----------------12----12------|
D|----9---------12----12-----------------------------------------------------|
A|---------------------------------------------------------------------------|
E|---------------------------------------------------------------------------|

  Let the final e(12) ring for as long as possible
  (Guitar one)
e|----12-14-15----14-12~~~---------------------------------------------------|
B|-12----------15------------------------------------------------------------|
G|---------------------------------------------------------------------------|
D|---------------------------------------------------------------------------|
A|---------------------------------------------------------------------------|
E|---------------------------------------------------------------------------|

Solo Backing:

  Repeat Until Solo Is Done
  (Guitar One)
e|--000000----------------------------000000---------------------------------|
B|--000000----------------------------000000---------------------------------|
G|--000000----------222222--555--444--000000----------222222--555--777-------|
D|--222222--555555--222222--555--444--222222--555555--222222--555--777-------|
A|--222222--555555--000000--333--222--222222--555555--000000--333--555-------|
E|--000000--333333--------------------000000--333333-------------------------|


Breakdown After Solo?(I'm Running Out Of Names For Riffs):
Guitar 1: od1 again, like at the begining


  Tremolo Picking                           Bend Slightly, Not Sure How Much
                                            Probably A Semitone
  (Guitar One)                              (Guitar two)      
e|-0/4/7/10/8/5/4------------------------------------------------------------|
B|---------------------------------------------------------------------------|
G|-------------------------------------------9b(?)---------------------------|
D|---------------------------------------------------------------------------|
A|---------------------------------------------------------------------------|
E|---------------------------------------------------------------------------|


Quiet Bit: Guitar one only - Clean Voice, With Slight Amount Of Gain

  Repeat Twice, Second Time The F#(16) somehow rises in volume
  (Guitar one)
e|---------------------------------------------------------------------------|
B|----9-----12--------14--------17--------16---------------------------------|
G|---9-----12--------14--------17--------16----------------------------------|
D|--9-----12--------14--------17--------16-----------------------------------|
A|-7-----10--------12--------15--------14------------------------------------|
E|---------------------------------------------------------------------------|


Ending: Both With Lots Of Distortion


  Tremolo Picking                  
  (Guitar One)                               (Guitar two)      
e|-------------------------------------------------------xx----xx------------|
B|-------------------------------------------------------xx----xx------------|
G|--9/13/16/19/17/14/13/---------------------9/12/9/7/9--xx----xx------------|
D|--x/x-/x-/x-/x-/x-/x-/---------------------9/12/9/7/9-----xx---------------|
A|--7/11/14/17/15/12/11/---------------------7/10/7/5/7-----xx---------------|
E|----------------------------------------------------------xx---------------|
 
  In Time With The Drums

  (Both Guitars)


e|---------------------------------------------------------------------------|
B|---------------------------------------------------------------------------|
G|-7---9--9999---------------------------------------------------------------|
D|-7-7-9--9999---------------------------------------------------------------|
A|-5-7-7--7777---------------------------------------------------------------|
E|---5-----------------------------------------------------------------------|


| /  slide up
| \  slide down
| h  hammer-on
| p  pull-off
| ~  vibrato
| +  harmonic
| x  Mute note
===============================================================================
Suggest correction
comments
print report bad tab
1 comment total.
0 reply
libertines4ever 648 Sep 16, 2009 03:54 PM

I'm impressed someone got the muted strings right :)

guest
You may want to rate the tab now too:
select rating
Wanna post a correction for this tab? Suggest correction