Oops, an error
Loading. Please wait.

Espionage Tab

version 5
version 5
1,350 views 12 this week
1 commentread comment
1 2 3 4 5
please rate
add to favorites
launch autoscroll
font size
0
reset
how to read this tab
guitar tuner
Autoscroll
slow
fast
+/-
esc
set tempo
stop
Help us to improve Ultimate-Guitar.com Take our survey!
×
Contributor
This is my very first tab, so I hope you like it!

Song: Espionage
Band: Green Day
Album: Soundtrack from the movie "AUSTIN POWERS"
Tabbed By: Username PowerTab1.04

I have also added the Bridge and Pre-Bridges 1 and 2 becuase they ARE played by the lead 
and are yet to be tabbed.

Do not copy this. I have worked hard and would hate if someone else got credit.

Thank you! Enjoy!

------------------------------------------------------------------------------

GUITAR TAB FOR "ESPIONAGE" BY GREEN DAY
Tabbed on December 24, 2008 (Christmas Eve)

Gtr I (E A D G B E) - 'Untitled'
Time Signature: 4/4
Key Signature: Concert (No sharps [#] or flats [b])
For ryhthm of song, SEE LEGEND at bottom of tab.

Gtr I - Please note: ENTIRE SONG IS TABBED FOR Gt. 1!


OPENING CHORD (Tie together for 8 beats and let ring)
  W         W
|-0--------(0)----|
|-0---------0-----|
|-0---------0-----|
|-2---------2-----|
|-2---------2-----|
|-0---------0-----|


MAIN RIFF 1
  E E E E E E E E E E E E E E E E
|------------------------------------|
|------------------------------------|
|------------------------------------|
|------------------------------------|
|---------2-2---1-1-1-0---0-0--------|
|-0-0-3-3-----3---------3-----3-2----|


MAIN RIFF 2 (Slightly higher, on the A string)
  E E E E E E E E E E E E E E E E
|------------------------------------|
|------------------------------------|
|------------------------------------|
|---------2-2---1-1-1-0---0-0--------|
|-0-0-3-3-----3---------3-----3-2----|
|------------------------------------|


THE BRIDGE (I did this!)
  Q  E Q E E E Q  E Q  E  E E Q  E Q  E E E Q  E Q  E E E E E E E
|-----------------------------------------------------------------|
|-----------------------------------------------------------------|
|-----------------------------------------------------------------|
|-----------------------------------------------------------------|
|-----------------------------------------------------------------|
|-7--7-7-7-5-7-8--8-8--8-10-8-7--7-7--7-7-7-7--7-7--7-7-7-8-8-8-8-|

  E E E E E E E E E E E E
|----------------------------|
|----------------------------|
|----------------------------|
|----------------------------|
|---------6-6-6-6-6-6-6-6----|
|-8-8-8-8-8-8-8-8-8-8-8-8----|


PRE-BRIDGE 1 (All eighth notes)
|-12-12-12-11-11-11-10-10-9-9-9-9-9-9-9-9-12-12-12-11-11-11-10-10-9-9-9-9-9-9-9-9----|
|------------------------------------------------------------------------------------|
|------------------------------------------------------------------------------------|
|------------------------------------------------------------------------------------|
|------------------------------------------------------------------------------------|
|------------------------------------------------------------------------------------|


PRE-BRIDGE 2 (Also all eighth notes)
|-15-15-15-14-14-14-13-13-12-12-12-12-12-12-12-12-15-15-15-14-14-14-13-13-12-12-12-12-12-12-12-12-|
|-------------------------------------------------------------------------------------------------|
|-------------------------------------------------------------------------------------------------|
|-------------------------------------------------------------------------------------------------|
|-------------------------------------------------------------------------------------------------|
|-------------------------------------------------------------------------------------------------|

MAIN RIFF 3 (Slightly modified)
  E E E E E E E E E E E E E E E E
|------------------------------------|
|------------------------------------|
|------------------------------------|
|------------------------------------|
|---------2-2---1-1-1-0---0---0-1----|
|-0-0-3-3-----3---------3---3--------|


ORDER OF SONG:

Opening Chord
Main Riff         x6
Main Riff 2       x2
Main Riff         x2
Bridge
Main Riff         x4
Main Riff 2       X2
Main Riff         x2
Bridge
Pre-Bridge        x2
Pre-Bridge 2      x2
Pre-Bridge        x2
Bridge
Opening Chord (LET RING!)
Drum solo and pause
Main Riff         x6
Main Riff 2       x2
Main Riff
Main Riff 3
Bridge
Opening Chord (FADE OUT!)

END OF SONG

Thank you very much!

_______________________________________________________________________________

Duration Legend
---------------
W - whole; H - half; Q - quarter; E - 8th; S - 16th; T - 32nd; X - 64th; a - acciaccatura
+ - note tied to previous; . - note dotted; .. - note double dotted
Uncapitalized letters represent notes that are staccato (1/2 duration)
Irregular groupings are notated above the duration line
Duration letters will always appear directly above the note/fret number it represents the
duration for.  Duration letters with no fret number below them represent rests.  Multi-
bar rests are notated in the form Wxn, where n is the number of bars to rest for.  Low
melody durations appear below the staff

Tablature Legend
----------------
 h   - hammer-on
 p   - pull-off
 b   - bend
 pb  - pre-bend
 r   - bend release (if no number after the r, then release immediately)
 /\  - slide into or out of (from/to "nowhere")
 s   - legato slide
 S   - shift slide
 - natural harmonic
[n]  - artificial harmonic
n(n) - tapped harmonic
 ~   - vibrato
 tr  - trill
 T   - tap
 TP  - trem. picking
 PM  - palm muting
\n/  - tremolo bar dip; n = amount to dip
 \n  - tremolo bar down
 n/  - tremolo bar up
/n\  - tremolo bar inverted dip
 =   - hold bend; also acts as connecting device for hammers/pulls
 <> - volume swell (louder/softer)
 x   - on rhythm slash represents muted slash
 o   - on rhythm slash represents single note slash

Misc Legend
-----------
 |  - bar
||  - double bar
||o - repeat start
o|| - repeat end
*|  - double bar (ending)
 :  - bar (freetime)
 $  - Segno
 &  - Coda
Tempo markers -  = BPM(8/16=s8/s16), where s8 = swing 8ths, s16 = swing 16ths


** Generated using Power Tab Editor by Brad Larsen: The Official Power Tab Web Site
Suggest correction What's this?
You can suggest a correction to this tab. Community and Mods will review your correction and vote to approve or reject it.
comments
We did not receive enough feedback on this tab! Please rate:
print report bad tab
1 2 3 4 5
1 comment total.
+1 reply
kalli 50 wrote on December 31 2008, 07:33 am

Really great, best tabs of this song i've ever seen.
5*

I want to post or [tab]
guest
You may want to rate the tab now too:
select rating
Please do not post tabs as comments. Select "correction" instead!