Oops, an error
Loading. Please wait.

Extraordinary Girl Bass Tab

version 1
version 1

Whole song

Interactive

4,791 views 15 this week
3 commentsread comments
1 2 3 4 5
accurate
x 6
add to favorites
launch autoscroll
font size
0
reset
guitar tuner
Tab Pro tools
  • play this tab
  • loop segment
  • change instrument
  • show fretboard
  • metronome
×
Best way to learn
"Extraordinary Girl"
Autoscroll
slow
fast
+/-
esc
set tempo
stop
Contributor
Intro:
G|--------------------------------|
D|-7-7-7-7---------7-7-7-7--------|
A|---------5-5-5-5--------5-5-5-5-|
E|--------------------------------|

Verse: X2
G|--------------------------------------------------------------|
D|-7-7-7-7--------7-7-7-7---------7-7-7-7-5-5-5-5---------------|
A|--------5-5-5-5---------5-5-5-5-------------------------------|
E|------------------------------------------------5-5-5-5-5-5-5-|

Chorus:
G|------------------------------------------------------------------------|
D|------------------------------------------------------------------------|
A|-----------------5-5-5-7-7-7-9-9-9-7-7-5-5-5-5-7-7-5-5-5-5-7-7-7-7-5--5-|
E|-5\2-2-2-2-2-0-0--------------------------------------------------------|

Post Chorus/Pre Verse:
G|--------------------------------|
D|-7-7-7-7---------7-7-7-7--------|
A|---------5-5-5-5--------5-5-5-5-|
E|--------------------------------|

Verse: X2
G|--------------------------------------------------------------|
D|-7-7-7-7--------7-7-7-7---------7-7-7-7-5-5-5-5---------------|
A|--------5-5-5-5---------5-5-5-5-------------------------------|
E|------------------------------------------------5-5-5-5-5-5-5-|

Chorus:
G|------------------------------------------------------------------------|
D|------------------------------------------------------------------------|
A|-----------------5-5-5-7-7-7-9-9-9-7-7-5-5-5-5-7-7-5-5-5-5-7-7-7-7-5--5-|
E|-5\2-2-2-2-2-0-0--------------------------------------------------------|

Verse: X2
G|--------------------------------------------------------------|
D|-7-7-7-7--------7-7-7-7---------7-7-7-7-5-5-5-5---------------|
A|--------5-5-5-5---------5-5-5-5-------------------------------|
E|------------------------------------------------5-5-5-5-5-5-5-|

Chorus:
G|-----------------------------------|
D|-----------------------------------|
A|-----------------5-5-5-7-7-7-9-9-9-|
E|-5\2-2-2-2-2-0-0-------------------|

G|----------------------------------------------------------------------|
D|----------------------------------------------------------------------|
A|-7-7-5-5-5-5-7-7-5-5-5-5-7-7-7-7-5-5-5-5-7-7-7-7-5-5-5-5-7-7-7-7-5--5-|
E|----------------------------------------------------------------------|

Outro: X2
G|----------------------------------|
D|-7-7-7-7---------7-7-7-7--------7-|
A|---------5-5-5-5--------5-5-5-5---|
E|----------------------------------|
comments
print report bad tab
3 comments total.
-1 reply
Maartenwuyts wrote on June 3 2006, 05:18 pm

the first part is wrong is goes like this:

G|------------------------------------------------------------------------------|
D|-2-2-2-2-2-2--0-0-0-0-0-0--2-2-2-2-2-2--0-0-0-0-0-0--2-2-2-2-2-2--0-0-0-0-0-0-|
A|------------------------------------------------------------------------------|
E|------------------------------------------------------------------------------|

G|---------------------------------------------------------------------------|
D|-2-2-2-2-2-2--0-0-0-0-0-0--2-2-2-2-2-2---------------2-2-2--2-2-2--2-2-2---|
A|---------------------------------------------------------------------------|
E|----------------------------------------3-3-3-3-3-3------------------------|

but i'm not going to post the whole tab here

0 reply
Squirrel1993 wrote on May 8 2007, 11:15 pm

its alright but does'nt match the live version very well

0 reply
DrSeemann wrote on October 11 2014, 07:39 am

Clearly wrong. I was listening to the master track and it doesn't add up at all.

(Come on, UltimateGuitars...why at least 20 words?!)

I want to post or [tab]
guest
You may want to rate the tab now too:
select rating
Please do not post tabs as comments. Select "correction" instead!