Oops, an error
Loading. Please wait.

Fod Tab

version 2
version 2
48,222 views 51 this week
6 commentsread comments
1 2 3 4 5
x 19
add to favorites
launch autoscroll
font size
0
reset
how to read this tab
guitar tuner
Autoscroll
slow
fast
+/-
esc
set tempo
stop
Help us to improve Ultimate-Guitar.com Take our survey!
×
Difficulty
Tuning
novice
D# G# C# F# A# D#
[Verse]

  (part 1) 
D#|-------------------|
A#|-------------------|
F#|-------------------|
C#|--7-7-7-7-7-7-7----| 
G#|--7-7-7-7-7-7-7----| 
D#|--5-5-5-5-5-5-5----|(repeat as many times you have too)
(somethings on my mind, its been so for some time)

  (part 2)
D#|-------------------|
A#|-------------------|
F#|-------------------|
C#|--5-5-5-5-5-5-5----| 
G#|--5-5-5-5-5-5-5----|
D#|--3-3-3-3-3-3-3----|
(it's time i'm on to you)

(repeat verse: part 1,2)


[Chorus]

D#|---------------------------------------|
A#|---------------------------------------|
F#|--9-9-9-------7-7-7--------------------|
C#|--9-9-9-5-5-5-7-7-7-7-7-7--------------|
G#|--7-7-7-5-5-5-5-5-5-7-7-7--------------|
D#|--------3-3-3-------5-5-5--------------|
(lets nuke the bridge we torched two thousand times before)


[Chorus]

D#|----------------------------------|
A#|----------------------------------|
F#|--9-9-9-------7-7-7-7-7-7---------|
C#|--9-9-9-5-5-5-7-7-7-7-7-7---------|
G#|--7-7-7-5-5-5-5-5-5-5-5-5---------|
D#|--------3-3-3---------------------|

(This time we'll blast it all to hell)

(repeat verse: part 1,2)

then play this:
D#|-----------------------|
A#|-----------------------|
F#|-7-7-7-7-7-7-7-7-7-7-7-|
C#|-7-7-7-7-7-7-7-7-7-7-7-|
G#|-5-5-5-5-5-5-5-5-5-5-5-|
D#|-----------------------|

D#|------------------------------------------------|
A#|------------------------------------------------|
F#|--7-7-6-------7-7-6-----------------------------|
C#|--7-7-6-7-7-7-7-7-6-5-5-5-----------------------|
G#|--5-5-4-7-7-7-5-5-4-5-5-5-----------------------|
D#|--------5-5-5-------3-3-3-----------------------|
(your just a fuck......)

repeat chorus then repeat interlude and end with

D#|---|
A#|---|
F#|-7-|
C#|-7-|
G#|-5-|
D#|---|
Suggest correction
comments
print report bad tab
6 comments total. Showing first comments.
0 reply
Fisshu 10 May 09, 2004 12:00 AM

LEGEND. I COULDNT SLEEP LAST NIGHT, THIS TAB IS SOO GOOOD OMFG.

0 reply
Fisshu 10 May 09, 2004 12:00 AM

HAHA MY EYS ARE BLEEDING :>

0 reply
chilipepper24 10 May 05, 2005 12:00 AM

you have to tune a half step down or just play everything a fret down, it says that at the top of the tab

guest
You may want to rate the tab now too:
select rating
Wanna post a correction for this tab? Suggest correction