Oops, an error
Loading. Please wait.

Fod Tab

version 5
version 5
40,529 views 60 this week
21 commentsread comments
1 2 3 4 5
excellent!
x 56
add to favorites
launch autoscroll
font size
0
reset
how to read this tab
guitar tuner
Autoscroll
slow
fast
+/-
esc
set tempo
stop
Help us to improve Ultimate-Guitar.com Take our survey!
×
Author
Difficulty
Tuning
novice
E A D G B E
I'm sure this is 100% correct!

Intro (Acoustic)

eb|-------------------------------------------------------------------------|
Bb|-------------------------------------------------------------------------|
Gb|-------------------------------------------------------------------------|
Db|--7-7-7-7-7-7-7-7-7-7-7-7-7-7-7-7-7-7-7-7-7-7-7-7-7-7-7-7-7-7-7-7-7------|
Ab|--7-7-7-7-7-7-7-7-7-7-7-7-7-7-7-7-7-7-7-7-7-7-7-7-7-7-7-7-7-7-7-7-7------|
Eb|--5-5-5-5-5-5-5-5-5-5-5-5-5-5-5-5-5-5-5-5-5-5-5-5-5-5-5-5-5-5-5-5-5------|
  1. Some  -  things on my mind,_  Its been for quite some time._ This
  2. Stuck   down   in  a  rut.   Dis - logic   and   smut.__     A_

eb|-------------------------------------------------------------------------|
Bb|-------------------------------------------------------------------------|
Gb|-------------------------------------------------------------------------|
Db|--5-5-5-5-5-5-5-5-5-5-5-5-5-5-5-5-5-7-7-7-7-7-7-7-7-7-7-7-7-7-7-7-7-7----|
Ab|--5-5-5-5-5-5-5-5-5-5-5-5-5-5-5-5-5-7-7-7-7-7-7-7-7-7-7-7-7-7-7-7-7-7----|
Eb|--3-3-3-3-3-3-3-3-3-3-3-3-3-3-3-3-3-5-5-5-5-5-5-5-5-5-5-5-5-5-5-5-5-5----|
  1. time  im     on__     to   you___ 
  2  side___   of__ you__  well hid.

eb|-------------------------------------------------------------------------|
Bb|-------------------------------------------------------------------------|
Gb|-------------------------------------------------------------------------|
Db|--7-7-7-7-7-7-7-7-7-7-7-7-7-7-7-7-7-7-7-7-7-7-7-7-7-7-7-7-7-7-7-7-7-7-7--|
Ab|--7-7-7-7-7-7-7-7-7-7-7-7-7-7-7-7-7-7-7-7-7-7-7-7-7-7-7-7-7-7-7-7-7-7-7--|
Eb|--5-5-5-5-5-5-5-5-5-5-5-5-5-5-5-5-5-5-5-5-5-5-5-5-5-5-5-5-5-5-5-5-5-5-5--|
  1. So where's the other face?__ The face i heard before_            Your 
  2. When its all said and done,__   it's real and its been fun._       But
eb|-------------------------------------------------------------------------|
Bb|-------------------------------------------------------------------------|
Gb|-------------------------------------------------------------------------|
Db|--5-5-5-5-5-5-5-5-5-5-5-5-5-5-5-5-5-5-5-5-5-5-5-5-5-5-5-5-5-5-5-5-5-5-5--|
Ab|--5-5-5-5-5-5-5-5-5-5-5-5-5-5-5-5-5-5-5-5-5-5-5-5-5-5-5-5-5-5-5-5-5-5-5--|
Eb|--3-3-3-3-3-3-3-3-3-3-3-3-3-3-3-3-3-3-3-3-3-3-3-3-3-3-3-3-3-3-3-3-3-3-3--|
  1. head    trip's   bor  -  ing   me_________
  2. was   it   all  real fun?_

Pre-Chorus: 

eb|-------------------------------------------------------------------------|
Bb|-------------------------------------------------------------------------|
Gb|-----9-9-9-9--x-------------------7-7-7-7-7-7-x--------------------------|
Db|-----9-9-9-9--x--5-5-5-5-5-5-5-5--7-7-7-7-7-7-x-7-7-7-7-7-7-7------------|
Ab|-----7-7-7-7--x--5-5-5-5-5-5-5-5--5-5-5-5-5-5-x-7-7-7-7-7-7-7------------|
Eb|-----------------3-3-3-3-3-3-3-3----------------5-5-5-5-5-5-5------------|
  1.Let's nuke the bridge we torched two thousand times before.


eb|-------------------------------------------------------------------------|
Bb|-------------------------------------------------------------------------|
Gb|--9-9-9-9--x-------------------7-7-7-7-7-7-------------------------------|
Db|--9-9-9-9--x--5-5-5-5-5-5-5-5--7-7-7-7-7-7--7-7-7-7-7-7-7-7-7-7-7-7-7-7--|
Ab|--7-7-7-7--x--5-5-5-5-5-5-5-5--5-5-5-5-5-5--7-7-7-7-7-7-7-7-7-7-7-7-7-7--|
Eb|--------------3-3-3-3-3-3-3-3---------------5-5-5-5-5-5-5-5-5-5-5-5-5-5--|
  1. This time we'll blast__ it all___ to______ hell.______
  

eb|-------------------------------------------------------------------------|
Bb|-------------------------------------------------------------------------|
Gb|--9-9-9-9--x-----------------------7-7-7-7-7-7---------------------------|
Db|--9-9-9-9--x--5-5-5-5-5-5-5-5------7-7-7-7-7-7----7-7-7-7-7-7-7-7-7------|
Ab|--7-7-7-7--x--5-5-5-5-5-5-5-5------5-5-5-5-5-5----7-7-7-7-7-7-7-7-7------|
Eb|--------------3-3-3-3-3-3-3-3---------------------5-5-5-5-5-5-5-5-5------|
  1. I've  had this   burn - ing in__ my guts___ now _for so long._

eb|-------------------------------------------------------------------------|
Bb|-------------------------------------------------------------------------|
Gb|--9-9-9-9--x-----------------------7-7-7-7-7-7-7-7-7-7-7-7-7-7-7---------|
Db|--9-9-9-9--x--5-5-5-5-5-5-5-5------7-7-7-7-7-7-7-7-7-7-7-7-7-7-7---------|
Ab|--7-7-7-7--x--5-5-5-5-5-5-5-5------5-5-5-5-5-5-5-5-5-5-5-5-5-5-5---------|
Eb|--------------3-3-3-3-3-3-3-3--------------------------------------------|
  1. My bel-ly's ach - ing now_  to________ say._____


Chorus: (Kick In Distortion)

eb|---------------------------------------------------------------------------------|
Bb|---------------------------------------------------------------------------------|
Gb|--7-6-x-----------7-6-x-----------7-6-x-----------7-6-x-----------7-6-x----------|
Db|--7-6-x--7-7-7-7--7-6-x--5-5-5-5--7-6-x--7-7-7-7--7-6-x--5-5-5-5--7-6-x--5-5-5-5-|
Ab|--5-4-x--7-7-7-7--5-4-x--5-5-5-5--5-4-x--7-7-7-7--5-4-x--5-5-5-5--5-4-x--5-5-5-5-|
Eb|---------5-5-5-5---------3-3-3-3---------5-5-5-5---------3-3-3-3---------3-3-3-3-|


eb|-------------------------------------------------------------------------|
Bb|-------------------------------------------------------------------------|
Gb|--7-6-x-----------7-6-x-----------7-6-x-----------7-6-x------------------|
Db|--7-6-x--7-7-7-7--7-6-x--5-5-5-5--7-6-x--7-7-7-7--7-6-x--5-5-5-5---------|
Ab|--5-4-x--7-7-7-7--5-4-x--5-5-5-5--5-4-x--7-7-7-7--5-4-x--5-5-5-5---------|
Eb|---------5-5-5-5---------3-3-3-3---------5-5-5-5---------3-3-3-3---------|
  1. You're just  a fuck.  i can't explain it 'cause i think you suck    


eb|-------------------------------------------------------------------------|
Bb|-------------------------------------------------------------------------|
Gb|--7-6-x-----------7-6-x-----------7-6-x----------------------------------|
Db|--7-6-x--7-7-7-7--7-6-x--5-5-5-5--7-6-x--7-7-7-7-7-7-7-7-7---------------|
Ab|--5-4-x--7-7-7-7--5-4-x--5-5-5-5--5-4-x--7-7-7-7-7-7-7-7-7---------------|
Eb|---------5-5-5-5---------3-3-3-3---------5-5-5-5-5-5-5-5-5---------------|
  1. i'm tak   -  ing pride   in telling you to fuck off and die


Pre-Chorus: 

eb|-------------------------------------------------------------------------|
Bb|-------------------------------------------------------------------------|
Gb|--9-9-9-9--x-----------------------7-7-7-7-7-7---------------------------|
Db|--9-9-9-9--x--5-5-5-5-5-5-5-5------7-7-7-7-7-7----7-7-7-7-7-7-7-7-7------|
Ab|--7-7-7-7--x--5-5-5-5-5-5-5-5------5-5-5-5-5-5----7-7-7-7-7-7-7-7-7------|
Eb|--------------3-3-3-3-3-3-3-3---------------------5-5-5-5-5-5-5-5-5------|
  1. I've  had this   burn - ing in__ my guts___ now _for so long._

eb|-------------------------------------------------------------------------|
Bb|-------------------------------------------------------------------------|
Gb|--9-9-9-9--x-----------------------7-7-7-7-7-7-7-7-7-7-7-7-7-7-7---------|
Db|--9-9-9-9--x--5-5-5-5-5-5-5-5------7-7-7-7-7-7-7-7-7-7-7-7-7-7-7---------|
Ab|--7-7-7-7--x--5-5-5-5-5-5-5-5------5-5-5-5-5-5-5-5-5-5-5-5-5-5-5---------|
Eb|--------------3-3-3-3-3-3-3-3--------------------------------------------|
  1. My bel-ly's ach - ing now_  to________ say._____

eb|-------------------------------------------------------------------------|
Bb|-------------------------------------------------------------------------|
Gb|--9-9-9-9--x-----------------------7-7-7-7-7-7---------------------------|
Db|--9-9-9-9--x--5-5-5-5-5-5-5-5------7-7-7-7-7-7----7-7-7-7-7-7-7-7-7------|
Ab|--7-7-7-7--x--5-5-5-5-5-5-5-5------5-5-5-5-5-5----7-7-7-7-7-7-7-7-7------|
Eb|--------------3-3-3-3-3-3-3-3---------------------5-5-5-5-5-5-5-5-5------|
  1. I'm tak-ing plea - sure in_ the doubts_ I've passed to   you___

eb|-------------------------------------------------------------------------|
Bb|-------------------------------------------------------------------------|
Gb|--9-9-9-9--x-----------------------7-7-7-7-7-7-7-7-7-7-7-7-7-7-7---------|
Db|--9-9-9-9--x--5-5-5-5-5-5-5-5------7-7-7-7-7-7-7-7-7-7-7-7-7-7-7---------|
Ab|--7-7-7-7--x--5-5-5-5-5-5-5-5------5-5-5-5-5-5-5-5-5-5-5-5-5-5-5---------|
Eb|--------------3-3-3-3-3-3-3-3--------------------------------------------|
  1. So lis-ten____  up as you__   bite_____     this.________

Chorus:


eb|-------------------------------------------------------------------------|
Bb|-------------------------------------------------------------------------|
Gb|--7-6-x-----------7-6-x-----------7-6-x-----------7-6-x------------------|
Db|--7-6-x--7-7-7-7--7-6-x--5-5-5-5--7-6-x--7-7-7-7--7-6-x--5-5-5-5---------|
Ab|--5-4-x--7-7-7-7--5-4-x--5-5-5-5--5-4-x--7-7-7-7--5-4-x--5-5-5-5---------|
Eb|---------5-5-5-5---------3-3-3-3---------5-5-5-5---------3-3-3-3---------|
  1. You're just  a fuck.  i can't explain it 'cause i think you suck    


eb|-------------------------------------------------------------------------|
Bb|-------------------------------------------------------------------------|
Gb|--7-6-x-----------7-6-x-----------7-6-x----------------------------------|
Db|--7-6-x--7-7-7-7--7-6-x--5-5-5-5--7-6-x--7-7-7-7-7-7-7-7-7---------------|
Ab|--5-4-x--7-7-7-7--5-4-x--5-5-5-5--5-4-x--7-7-7-7-7-7-7-7-7---------------|
Eb|---------5-5-5-5---------3-3-3-3---------5-5-5-5-5-5-5-5-5---------------|
  1. i'm tak   -  ing pride   in telling you to fuck off and die


eb|-------------------------------------------------------------------------|
Bb|-------------------------------------------------------------------------|
Gb|--7-6-x---------------7-6-x-----------7-6-x-----------7-6-x--------------|
Db|--7-6-x--7-7-7-7------7-6-x--5-5-5-5--7-6-x--7-7-7-7--7-6-x--5-5-5-5-----|
Ab|--5-4-x--7-7-7-7------5-4-x--5-5-5-5--5-4-x--7-7-7-7--5-4-x--5-5-5-5-----|
Eb|---------5-5-5-5-------------3-3-3-3---------5-5-5-5---------3-3-3-3-----|
  1. Good                  -                  night.________________________

eb|-------------------------------------------------------------------------|
Bb|-------------------------------------------------------------------------|
Gb|--7-6-x-------------------7-6-x-------------------7-6-x------------------|
Db|--7-6-x--7-7-7-7----------7-6-x--5-5-5-5----------7-6-x--7-7-7-7~~~------|
Ab|--5-4-x--7-7-7-7----------5-4-x--5-5-5-5----------5-4-x--7-7-7-7~~~------|
Eb|---------5-5-5-5-----------------3-3-3-3-----------------5-5-5-5~~~------|
  1.______________________________________________________________

That's it! I've spend a load of time working on this and im sure its 100% Correct!
Suggest correction
comments
print report bad tab
21 comments total. Showing first comments.
0 reply
offbeat 26 wrote on January 5 2007, 11:10 am

Dont see anything wrong w/ it.

0 reply
we_built_a_tree 50 wrote on March 24 2007, 09:47 am

good tab

0 reply
mcl guitar 10 wrote on May 27 2007, 10:26 pm

good tab

guest
You may want to rate the tab now too:
select rating
Wanna post a correction for this tab? Suggest correction