Oops, an error
Loading. Please wait.

Forever Now Bass Tab

version 1
version 1

Whole song

  • Album version in full, including fills.

Interactive

535 views 24 this week
no commentswrite comment
1 2 3 4 5
x 3
add to favorites
launch autoscroll
font size
0
reset
guitar tuner
Autoscroll
slow
fast
+/-
esc
set tempo
stop
Help us to improve Ultimate-Guitar.com Take our survey!
×
Author
Difficulty
novice
About this tab version
Album version in full, including fills. Was this info helpful? Yes No
Verse: 
Rest 4 bars, then: ("I thought before I was…")
G|-----------------|-----------------|-----------------|-----------------|
D|-----------------|-----------------|-----------------|-----------------|
A|-7---7-7---7-7-7-|-----------------|-----------------|-----------------|
E|-----------------|-4---4-4---4-4-4-|-5---5-5---5-5-5-|-7-7-7-7-7-7-7-7-|

G|-----------------|-----------------|-----------------|-----------------|
D|-----------------|-----------------|-----------------|-----------------|
A|-7-7-7-7-7-7-7-7-|-----------------|-7-7-7-7-7-7-7-7-|-7-7-7-7-7-7-7---|
E|-----------------|-5-5-5-5-5-5-5-5-|-----------------|-----------------|

G|-----------------|-----------------|-----------------|-----------------|
D|-----------------|-----------------|-----------------|-----------------|
A|-7---7-7---7-7-7-|-----------------|-----------------|-----------------|
E|-----------------|-4---4-4---4-4-4-|-5---5-5---5-5-5-|-7-7-7-7-7-7-7-9-|

Pre Chorus: ("Standing at the edge of the world")
G|-----------------|-----------------|-----------------|-----------------|
D|-----------------|-----------------|-----------------|-----------------|
A|-----------------|-----------------|-7-7-7-7-7-7-7-7-|-7-7-7-7-7-7-----| x2
E|---9-9-9-9-9-9-9-|-9-9-9-9-9-9-9-9-|-----------------|-------------7-9-|

G|-----------------|-----------------|-----------------|-----------------|
D|-----------------|-----------------|-----------------|-----------------|
A|-----------------|-----------------|-7-7-7-7-7-7-7-7-|-7-7-7-7-7-7-----|
E|---9-9-9-9-9-9-9-|-9-9-9-9-9-9-9-9-|-----------------|-------------7-5-|

G|-----------------|-----------------|-----------------|-----------------|
D|-----------------|-----------------|-----------------|-----------------|
A|-----------------|-----------------|-7---7-7---7-7-7-|-----------------|
E|---5-5---5-5-5-5-|-7---7-7---7-7-7-|-----------------|-----5------5----|

G|-----------------|-----------------|
D|-----------------|-----------------|
A|-----------------|-----------------|
E|-5-----5---5-5-5-|-7---7-7-7-7-7-7-|

Chorus ("From the edge of the world")
G|-----------------|-----------------|-----------------|-----------------|
D|-----------------|-----------------|-----------------|-----------------|
A|-----7-------7-7-|----7------------|-----------------|-----------------|
E|-----------------|------7------7-5-|---5-5-5-5-5-5-7-|---7-7-7-7-7-7-7-|

G|-----------------|-----------------|-----------------|-----------------|
D|-----------------|-----------------|-----------------|-----------------|
A|-----7-------7-7-|----7------------|-----------------|-----------------|
E|-----------------|------7------7-5-|---5-5-5-5-5-5-7-|---7-7-7-7-7-7-7-|

REPEAT ALL FROM BEGINNING WITHOUT THE REST AT THE START

Solo
G|-----------------|-----------------|-----------------|-----------------|
D|-----------------|-----------------|-----------------|-----------------|
A|-----5-------5-5-|-----5-----------|-----------------|-----------------|
E|-----------------|-------5-----5-3-|---3-3-3-3-3-3-5-|---5-5-5-5-5-5-5-|

G|-----------------|-----------------|-----------------|-----------------|
D|-----------------|-----------------|-----------------|-----------------|
A|-----5-------5-5-|-----5-----------|-----------------|-----------------|
E|---x-------------|-------5-----5-3-|---3-3-3-3-3-3-5-|---5-5-5-5-5-5-5-|

G|-----------------|-----------------|-----------------|-----------------|
D|-----------------|-----------------|-----------------|-----------------|
A|-----5-------5-5-|-----5-----------|-----------------|-----------------|
E|---x-------------|-------5-----5-3-|---3-3-3-3-3-3-5-|---5-5-5-5-5-5-5-|

G|-----------------|-----------------|-----------------|
D|-----------------|-----------------|-----------------|
A|-----5-------5-5-|-----5-----------|-----------------|
E|---x-------------|-------5-----5-3-|---3-3-3-3-3-10\-|

G|-----------------|-----------------|-----------------|-----------------|
D|-----------------|-----------------|-----------------|-----------------|
A|-0---------------|-----------------|-0---------------|---------5-5-5-2-|
E|-----------------|-----------------|-----------------|-----------------|

Bridge ("if this is what you call the good life…"
G|-----------------|-----------------|-----------------|-----------------|
D|-----------------|-----------------|-----------------|-----------------|
A|---2-2---2-2-2---|---------------5-|---5-5---5-5-5---|-5-5-5---5-5-0-2-|
E|-----------------|-3-3-3---3-3-3---|-----------------|-----------------|

G|-----------------|-----------------|-----------------|-----------------|
D|-----------------|-----------------|-----------------|-----------------|
A|---2-2---2-2-2---|---------------5-|---5-5---5-5-5---|-5-5-5---5-5-0-2-|
E|-----------------|-3-3-3---3-3-3---|-----------------|-----------------|

G|-----------------|-----------------|-----------------|-----------------|
D|-----------------|-----------------|-----------------|-----------------|
A|---2-2---2-2-2---|---------------5-|---5-5---5-5-5---|-5-5-5---5-5-0-2-|
E|-----------------|-3-3-3---3-3-3---|-----------------|-----------------|

G|-----------------|-----------------|
D|-----------------|-----------------|
A|---2-2---2-2-2---|-----------------|
E|-----------------|-3-3-3-3-3-------|

Part 2: Riff
G|-----------------|-----------------|-----------------|-----------------|
D|-----------------|-----------------|-----------------|-----------------|
A|-5-5-5-----------|-------2-x-------|-5-5-5-----------|-----------------|
E|-------2-x-0-x-3-|-3-3-x-----5-5-5-|-------2-x-0-x-3-|-3-3-x-7-x-x-x-x-|

Verse: ("I don't wanna think about tomorrow…"
G|-----------------|-----------------|
D|-----------------|-----------------|
A|-5-5-5-----------|-------2-x-------| x4
E|-------2-x-0-x-3-|-3-3-x-----5-5-5-|

G|-----------------|-----------------|
D|-----------------|-----------------|
A|-5-5-5-----------|-------2---------| x4
E|-------2---0---3-|-3-3-------5-5-5-|

Bridge: ("I want a new conspiracy…")
G|-----------------|-----------------|-----------------|-----------------|
D|-----------------|-----------------|-----------------|-----------------|
A|-----------------|-----------------|-5-5-5-5-5-5-5-5-|-----------------|
E|-3-3-3-3-3-3-3-3-|-5-5-5-5-5-5-5-5-|-----------------|-3-3-3-3-3-5-----|

G|-----------------|-----------------|
D|-----------------|-----------------|
A|-----------------|-----------------|
E|-3-3-3-3-3-3-3-3-|-5-5-5-5-5-5-5-5-|

G|-----------------|-----------------|-----------------|-----------------|
D|-----------------|-----------------|-----------------|-----------------|
A|-5-5-5-----------|-------2-x-------|-5-5-5-----------|-------2-x-------|
E|-------2-x-0-x-3-|-3-3-x-----5-5-5-|-------2-x-0-x-3-|-3-3-x-----5-5-5-|

Somewhere Now (Reprise)
G|-----------------|-----------------|-----------------|-----------------|
D|-----------------|-----------------|-----------------|-----------------|
A|-5---------------|-----------------|-----------------|-----------------|
E|-----------------|-----------------|-----------------|-----------------|

Rest 3 bars, then:
G|-----------------|-----------------|-----------------|-----------------|
D|-----------------|-----------------|-----------------|-----------------|
A|-----------2-----|-----------------|-----------------|-----------------| x3
E|-5-5-5-3-------3-|-----------------|-----------------|-----------------|


Buildup: ("… ever get so full…" )
G|-----------------|-----------------|-----------------|-----------------|
D|-----------------|-----------------|-----------------|-----------------|
A|-----------------|-----------------|-----------------|-----------------|
E|-5-5-5-5-5-5-5-5-|-5-5-5-5-5-5-5-5-|-5-5-5-5-5-5-5-5-|-5-5-5-5-5-5-5-5-|

Bridge: ("Somewhere now…")
G|-----------------|-----------------|-----------------|-----------------|
D|-----------------|-----------------|-----------------|-5---5---5h7-7-7-|
A|-5---5---5-5-5-5-|-----------------|-5---5---5-5-5-5-|-----------------| x2
E|-----------------|-3---3---5-5-5-5-|-----------------|-----------------|

Chorus: ("I wanna start a revolution…" 
[nb. watch out for the variations]
G|-----------------|-----------------|-----------------|-----------------|
D|-----------------|-----------------|-----------------|-----------------|
A|-5---5---5-5-5-5-|-----------------|-5---5---5-5-5-5-|-----------------|
E|-----------------|-3---3---5-5-7-5-|-----------------|-3---3---5-5-5-5-|

G|-----------------|-----------------|-----------------|-----------------|
D|-----------------|-----------------|-----------------|-5-4-------------|
A|-5---5---5-5-5-5-|-----------------|-5---5---5-5-5-5-|-----7-5-4-5-7-0-|
E|-----------------|-3---3---5-5-7-5-|-----------------|-----------------|

G|-----------------|-----------------|-----------------|-----------------|
D|-----------------|-----------------|-----------------|-5---5---7-7-7-7-|
A|-5---5---5-5-5-5-|-----------------|-5---5---5-5-5-5-|-----------------|
E|-----------------|-3---3---5-5-7-5-|-----------------|-----------------|

G|-----------------|-----------------|-----------------|-----------------|
D|-----------------|-----------------|-----------------|-5-4-------------|
A|-5---5---5-5-5-5-|-----------------|-5---5---5-5-5-5-|-----7-5-4-5-7-0-|
E|-----------------|-3---3---5-5-7-5-|-----------------|-----------------|

G|-----------------|-----------------|-----------------|-----------------|
D|-----------------|-----------------|-----------------|-----------------|
A|-5---5---5-5-5-5-|-----------------|-5---5---5-5-5---|-----------------|
E|-----------------|-3---3---5-5-7-5-|---------------3-|---3-3-3-5-5-5-5-|

G|-----------------|-----------------|-----------------|-----------------|
D|-----------------|-----------------|---------------5-|---4-------------|
A|-5---5---5-5-5-5-|-----------------|-5---5---5-5-5---|-------7---5-7-0-|
E|-----------------|-3---3---5-5-7-5-|-----------------|-----------------|

G|-----------------|-----------------|-----------------|-----------------|
D|-----------------|-----------------|-----------------|-----------------|
A|-5---5---5-5-5-5-|-----------------|-5---5---5-5-5---|-----------------|
E|-----------------|-3---3---5-5-7-5-|---------------3-|---3-3-3-5-5-5-5-|

G|-----------------|-----------------|-----------------|-----------------|
D|-----------------|-----------------|---------------5-|---5---7-7-7-7-7-|
A|-5---5---5-5-5-5-|-----------------|-5---5---5-5-5---|-----------------|
E|-----------------|-3-3-3-3-5-5-5-5-|-----------------|-----------------|

Outro
G|-----------------|-----------------|-----------------|-----------------|
D|-----------------|-----------------|-----------------|-----------------|
A|-5---5---------1-|---1-1-1-1-1-1-1-|-5---5-----------|-----------------| x2
E|---------3-3-3---|-----------------|---------1-1-1-5-|-5-5-5-5-5-5-5-5-|

G|-----------------|-----------------|-----------------|-----------------|
D|-----------------|-----------------|-----------------|-----------------|
A|-5-5-5-----------|-------2-x-------|-5-5-5-----------|-------2-x-------| x2
E|-------2-x-0-x-3-|-3-3-x-----5-5-5-|-------2-x-0-x-3-|-3-3-x-----5-5-5-|

***********************************
| x   Dead note
| /   Slide up
| \   Slide down
| h   Hammer-on
***********************************
Suggest correction
Give kudos to tab author, rate the tab!
1 2 3 4 5
comments
print report bad tab
guest
You may want to rate the tab now too:
select rating
Wanna post a correction for this tab? Suggest correction