Oops, an error
Loading. Please wait.

Forever Now Tab

version 1
version 1

Whole song

  • Full song with lead guitar.

Interactive

3,538 views 237 this week
1 commentread comment
1 2 3 4 5
x 8
add to favorites
launch autoscroll
font size
0
reset
how to read this tab
guitar tuner
Autoscroll
slow
fast
+/-
esc
set tempo
stop
Help us to improve Ultimate-Guitar.com Take our survey!
×
Author
Difficulty
novice
About this tab version
Full song with lead guitar. Was this info helpful? Yes No
                                          FOREVER NOW
                                           Green Day
                                       Revolution Radio (2016)

[Verse]
e|----------------------------------------------------------------------------------|
B|----------------------------------------------------------------------------------|
G|--x-x-x-x-x-x-x-x-x-x-x-x-x-x-x-x-x-x-x-x-x-x-x-x-x-x-x-x-x-x-x-x-----------------|
D|--x-x-x-x-x-x-x-x-x-x-x-x-x-x-x-x-x-x-x-x-x-x-x-x-x-x-x-x-x-x-x-x-----------------|
A|--x-x-x-x-x-x-x-x-x-x-x-x-x-x-x-x-x-x-x-x-x-x-x-x-x-x-x-x-x-x-x-x-----------------|
E|----------------------------------------------------------------------------------|


e|----------------------------------------------------------------------------------|
B|----------------------------------------------------------------------------------|
G|-9-9-9-9-9-9----------------------------------------------------------------------|
D|-9-9-9-9-9-9--6-6-6-6-6-6-6--7-7-7-7-7---9-9-9-9-9-9------------------------------|
A|-7-7-7-7-7-7--6-6-6-6-6-6-6--7-7-7-7-7---9-9-9-9-9-9------------------------------|
E|--------------4-4-4-4-4-4-4--5-5-5-5-5---7-7-7-7-7-7------------------------------|

      PM.......................................................
e|----------------------------------------------------------------------------------|
B|----------------------------------------------------------------------------------|
G|--9-9-9-9-9-9-9-9-----------------9-9-9-9-9-9-9-9-9-9-9-9-9-9-9-------------------|
D|--9-9-9-9-9-9-9-9-7-7-7-7-7-7-7-7-9-9-9-9-9-9-9-9-9-9-9-9-9-9-9-------------------|
A|--7-7-7-7-7-7-7-7-7-7-7-7-7-7-7-7-7-7-7-7-7-7-7-7-7-7-7-7-7-7-7-------------------|
E|------------------5-5-5-5-5-5-5-5-------------------------------------------------|

e|----------------------------------------------------------------------------------|
B|----------------------------------------------------------------------------------|
G|-9-9-9-9-9-9----------------------------------------------------------------------|
D|-9-9-9-9-9-9--6-6-6-6-6-6-6--7-7-7-7-7---9-9-9-9-9-9------------------------------|
A|-7-7-7-7-7-7--6-6-6-6-6-6-6--7-7-7-7-7---9-9-9-9-9-9------------------------------|
E|--------------4-4-4-4-4-4-4--5-5-5-5-5---7-7-7-7-7-7------------------------------|


[Chorus]
e|----------------------------------------------------------------------------------|
B|----------------------------------------------------------------------------------|
G|-9------6-6-6-6-6-6-6-6-6-6-6-6-6-6-6-6--9-9-9-9-9-9-9-9-9-9-9-9-9----------------|
D|-9-9-9--6-6-6-6-6-6-6-6-6-6-6-6-6-6-6-6--9-9-9-9-9-9-9-9-9-9-9-9-9----------------|   X3
A|-7-9-9--4-4-4-4-4-4-4-4-4-4-4-4-4-4-4-4--7-7-7-7-7-7-7-7-7-7-7-7-7----------------|
E|---7-7----------------------------------------------------------------------------|
                                                                                   ||
                              e|----------------------------------------------------|
            LEAD GUITAR       B|--5-5-5-5-7-7-7-7-9-9-9-9-12-12-12-12-14------------|
              DURING          G|----------------------------------------------------|
            2nd AND 3rd       D|----------------------------------------------------|
               TIME           A|----------------------------------------------------|
                              E|----------------------------------------------------|


e|----------------------------------------------------------------------------------|
B|----------------------------------------------------------------------------------|
G|-9----------------------------------------9-9-9-9-9-9-9-9-------------------------|
D|-9-9-9--7-7-7-7-7-7-7-7--9-9-9-9-9-9-9-9--9-9-9-9-9-9-9-9--STOP--7--7-7-----------|
A|-7-9-9--7-7-7-7-7-7-7-7--9-9-9-9-9-9-9-9--7-7-7-7-7-7-7-7--------7--7-7-----------|
E|---7-7--5-5-5-5-5-5-5-5--7-7-7-7-7-7-7-7-------------------------5--5-5-----------|

e|----------------------------|-----------------------------------------------------|
B|----------------------------|-----------------------------------------------------|
G|----------------------------|-9-9-9-9-------9-------9-----------------------------|
D|-7-7-7-7-7-7-7--9-9-9-9-9-9-|-9-9-9-9--9-9--9--9-9--9--7-7-7-7-7--9-9-9-9-9-9-9-9-|
A|-7-7-7-7-7-7-7--9-9-9-9-9-9-|-7-7-7-7--9-9--7--9-9--7--7-7-7-7-7--9-9-9-9-9-9-9-9-|
E|-5-5-5-5-5-5-5--7-7-7-7-7-7-|----------7-7-----7-7-----5-5-5-5-5--7-7-7-7-7-7-7-7-|
                              |                                                     |
                              |_________________        X2      ____________________|
                                                


REPEAT VERSE

REPEAT CHORUS


e|----------------------------------------------|
B|----------------------------------------------|
G|-7--7-----7-----7-----------------------------|
D|-7--7--7--7--7--7--5-5-5-5-5--7-7-7-7-7-7-7-7-|  X3
A|-5--5--7--5--7--5--5-5-5-5-5--7-7-7-7-7-7-7-7-|
E|-------5-----5-----3-3-3-3-3--5-5-5-5-5-5-5-5-|

e|-------------------------------------------------------|
B|-------------------------------------------------------|
G|-7--7-----7-----7-----------------------------7-7--6---|
D|-7--7--7--7--7--7--5-5-5-5-5--7-------7-------7-7--6---|
A|-5--5--7--5--7--5--5-5-5-5-5--7-------7-------5-5--4---|
E|-------5-----5-----3-3-3-3-3--5-------5----------------|


[Bridge]

e|---------------------------------------------------------------------|
B|---------------------------------------------------------------------|
G|-----------------------------------7-7-7-7-7-7-7-7-7-7-7-7--7-7-6----|
D|-9-9-9-9-9-9-9-9--5-5-5-5-5-5-5-5--7-7-7-7-7-7-7-7-7-7-7-7--7-7-6----|   X3
A|-9-9-9-9-9-9-9-9--5-5-5-5-5-5-5-5--5-5-5-5-5-5-5-5-5-5-5-5--5-5-4----|
E|-7-7-7-7-7-7-7-7--3-3-3-3-3-3-3-3------------------------------------|

e|----------------------------||--------------------------||
B|----------------------------||--------------------------||
G|----------------------------||--7-7---------------------||
D|-9-9-9-9-9-9-9-9--5-5-5-5-5-||--7-7--4--2--5-5-5--9--7--||
A|-9-9-9-9-9-9-9-9--5-5-5-5-5-||--5-5--4--2--5-5-5--9--7--||
E|-7-7-7-7-7-7-7-7--3-3-3-3-3-||-------2--0--3-3-3--7--5--||
                               |                           |
                               |___________ X10 ___________|


e|------------------------------------------------------------------|
B|------------------------------------------------------------------|
G|----------------------------------7-7-7-7-7-7-7-7-----------------|
D|-5-5-5-5-5-5-5-5--7-7-7-7-7-7-7-7-7-7-7-7-7-7-7-7--5-5-5-5-5--7---|
A|-5-5-5-5-5-5-5-5--7-7-7-7-7-7-7-7-5-5-5-5-5-5-5-5--5-5-5-5-5--7---|
E|-3-3-3-3-3-3-3-3--5-5-5-5-5-5-5-5------------------3-3-3-3-3--5---|

e|---------------------------------||--------------------------||
B|---------------------------------||--------------------------||
G|---------------------------------||--7-7---------------------||
D|-5-5-5-5-5-5-5-5-7-7-7-7-7-7-7-7-||--7-7--4--2--5-5-5--9--7--||
A|-5-5-5-5-5-5-5-5-7-7-7-7-7-7-7-7-||--5-5--4--2--5-5-5--9--7--||
E|-3-3-3-3-3-3-3-3-5-5-5-5-5-5-5-5-||-------2--0--3-3-3--7--5--||
                                    |                           |
                                    |___________ X2 ____________|


SOMEWHERE NOW REPRISE
e|-----0-------------0---------------0----------------------------------------------|
B|-------3-------------3---------------3---------3---2h3p2p0------------------------|
G|---2-----2-------2--------------2---------------------------2---------------------|
D|-0------------------------------------------2-------------------------------------|
A|---------------3---------3-2------------2-0---------------------------------------|
E|----------------------------------------------------------------------------------|

e|-----0-------------0---------------0----------------------------------------------|
B|-------3-------------3---------------3--------------------------------------------|
G|---2-----2-------2--------------2-------------------------------------------------|
D|-0----------------------------------------7-7-7--5--9--5--------------------------|   X3
A|---------------3---------3-2--------------7-7-7--5--9--5--------------------------|
E|------------------------------------------5-5-5--3--7--3--------------------------|


e|-----0-------------0---------------0----------------------------------------------|
B|-------3-------------3---------------3--------------------------------------------|
G|---2-----2-------2--------------2-------------------------------------------------|
D|-0-----------------------------------------7----------7----------7----------7-----|   X2
A|---------------3---------3-2---------------7----------7----------7----------7-----|
E|-------------------------------------------5----------5----------5----------5-----|


SOMEWHERE NOW + BRIDGE
e|-----------------------------------|
B|-----------------------------------|
G|-7-7-7-7-7-7-7-7-------------------|
D|-7-7-7-7-7-7-7-7--5-5-5--7-7-7-7-7-|
A|-5-5-5-5-5-5-5-5--5-5-5--7-7-7-7-7-|
E|------------------3-3-3--5-5-5-5-5-|
 |                                   |
 |____________    X20   _____________|

[Outro]
e|------------------------------------------------------------------------|
B|------------------------------------------------------------------------|
G|--7-7-7---------3-3-3-3-3-3-3-3----7-7-7--------------------------------|
D|--7-7-7--5-5-5--3-3-3-3-3-3-3-3----7-7-7--3-3-3--7-7-7-7-7-7-7-7--------| X2
A|--5-5-5--5-5-5--1-1-1-1-1-1-1-1----5-5-5--3-3-3--7-7-7-7-7-7-7-7--------|
E|---------3-3-3----------------------------1-1-1--5-5-5-5-5-5-5-5--------|
||
e|-10-10-10-10-12-12-12-13-13-13-13-13-13-13-13--10-10-10-10-12-12-12----------12----12----12--|
B|--------------------------------------------------------------------10-10-10----10----10-----|
G|---------------------------------------------------------------------------------------------|
D|---------------------------------------------------------------------------------------------|  X2
A|---------------------------------------------------------------------------------------------|
E|---------------------------------------------------------------------------------------------|


e|--------------------------|           |--------------------------------------------|
B|--------------------------|           |--------------------------------------------|
G|--7-7---------------------|           |----7---------7---------7---------7---------|
D|--7-7--4--2--5-5-5--9--7--|  X4       |----7---------7---------7---------7---------|
A|--5-5--4--2--5-5-5--9--7--|           |----5---------5---------5---------5---------|
E|-------2--0--3-3-3--7--5--|           |--------------------------------------------|

e|-----0-------------0---------------0-----------------------------2----------------|
B|-------3-------------3---------------3---------3---2h3p2p0-------3----------------|
G|---2-----2-------2--------------2---------------------------2----2----------------|
D|-0------------------------------------------2--------------------0----------------|
A|---------------3---------3-2------------2-0----------------------0----------------|
E|-----------------------------------------------------------------0----------------|


************************************

| h   Hammer-on
| p   Pull-off
| PM  Palm mute

************************************
Suggest correction
comments
print report bad tab
1 comment total.
0 reply
DoomProGamer 20 Nov 12, 2016 03:07 AM

Intro is amazing!

guest
You may want to rate the tab now too:
select rating
Wanna post a correction for this tab? Suggest correction