Oops, an error
Loading. Please wait.

Fuck Time bass

version 1
version 1

Whole song

1,978 views 1 this week
1 commentread comment
1 2 3 4 5
x 4
add to favorites
×
Save as Personal and add changes to this tab that will be seen only by you. Learn more ›
×
You can save this tab as Personal to edit and correct it or add notes. All changes will be seen only by you. Learn more »
launch autoscroll
font size
0
reset
guitar tuner
edit
Autoscroll
slow
fast
+/-
esc
set tempo
stop
-----------------------------------------------------------------------------
                             F*ck Time - Green Day
-----------------------------------------------------------------------------

Tabbed by: Country Bass
E-mail: aaron.white8@education.nsw.gov.au

Great little song
Sorry to those who don't like the use of the f word, it was a request from a friend
Really easy and fun to play, good luck


Tuning: Standard

Listen to song for timing

Verse

G|------------------|
D|------------------|
A|----10----7-------| x6
E|-10----10---------|

Chorus

G|-------------------------------------------------------------------|
D|----------2-2-4-2---------2-2-4-2----------------------------------|
A|--0-0-4-4---------0-0-4-4-----------------2-2-4-2---------2-2-4-2--|
E|----------------------------------0-0-4-4---------0-0-4-4----------|

G|-------------------------------------------------------------------|
D|----------2-2-4-2---------2-2-4-2----------------------------------|
A|--0-0-4-4---------0-0-4-4---------2-2-2-2-2-2-2-2-2-2-2-2-2-2-2-2--|
E|-------------------------------------------------------------------|

Bridge

G|----------------------------------------------------------------------|
D|----------------------------------------------------------------------|
A|------------------------------0--0--0-0-0-0-3-3-3-3-3-3-3-3-3-3-3-3-3-|
E|--0--0--0-0-0-0-3--3--3-3-3-3-----------------------------------------|

Instrumental Break

G|------------------|
D|------------------|
A|----10----7-------| x4
E|-10----10---------|

G|-------------------------------------------------------------------|
D|----------2-2-4-2---------2-2-4-2----------------------------------|
A|--0-0-4-4---------0-0-4-4-----------------2-2-4-2---------2-2-4-2--|
E|----------------------------------0-0-4-4---------0-0-4-4----------|

G|-------------------------------------------------------------------|
D|----------2-2-4-2---------2-2-4-2----------------------------------|
A|--0-0-4-4---------0-0-4-4---------2-2-2-2-2-2-2-2-2-2-2-2-2-2-2-2--|
E|-------------------------------------------------------------------|

Outro

G|---------------------------------------------------------|
D|---------------------------------------------------------|
A|------------------------------0--0--0-0-0-0-3-3-3-3-3-3--| x2
E|--0--0--0-0-0-0-3--3--3-3-3-3----------------------------|

G|--------------------------------------------|
D|--------------------------------------------|
A|-3-3-3-3-3-3-3-3-3-3-3-3-3-3-3-3-3-3-3-3-3--|
E|--------------------------------------------|

G|------------------|
D|------------------|
A|----10----7-------| x5
E|-10----10---------|


Playing Order:

Verse
Chorus
Bridge
Verse
Chorus
Bridge
Instrumental Break
Outro




| /  slide up
| \  slide down
| h  hammer-on
| p  pull-off
| ~  vibrato
| +  harmonic
| x  Mute note
=============================================================================

            
            
Suggest correction
Creating personal tab
Creating personal tab
You can edit any tab online and save it as your Personal.

You can edit, replace or remove any tab part or add personal notes – all changes will be seen only by you.

Personal tabs can be accessed anytime from any device, even offline.
Learn more »
comments
print report bad tab
1 comment total.
0 reply
imbatman1312 2,207 May 26, 2015 04:35 AM

Lack of accuracy. The Verse is completely wong, it just sounds bad when played against the song (The studio version from Dos anyway)

guest
You may want to rate the tab now too:
select rating
Wanna post a correction for this tab? Suggest correction