Oops, an error
Loading. Please wait.

Geek Stink Breath Tab

version 1
version 1
14,088 views 12 this week
8 commentsread comments
1 2 3 4 5
worth learning
x 7
add to favorites
launch autoscroll
font size
0
reset
how to read this tab
guitar tuner
Tab Pro tools
  • play this tab
  • loop segment
  • change instrument
  • show fretboard
  • metronome
Autoscroll
slow
fast
+/-
esc
set tempo
stop
Contributor
nobody tabbed this right and i have the book so i know its perfect.
It might look wrong but if u play along with the song it sounds perfect.

tuned down 1/2 step
.=palm mute

intro (guitar 1): 
eb-----------------------------------------------------------------------------
Bb-----------------------------------------------------------------------------
Gb----------55-----------------------------------------------------------------
Db----xx-33-55---x4-5---5------3------5------3------5------3------5---333/5----
Ab-55-xx-33-33------5---5---33-3-x-55-5---33-3-x-55-5---33-3-x-55-5---333/5----
Eb-33-xx-------0----3-3-3-0-11-1-x-33-3-0-11-1-x-33-3-0-11-1-x-33-3-0-111/3----
                      .   . ..     ..   . ..     ..   . ..     ..   .

intro (guitar 2): 
eb-----------------------------------------------------------------------------
Bb-----------------------------------------------------------------------------
Gb-----------------------------------------------------------------------------
Db-55-55-55-55------5---5------3------5------3------5------3------5---333/5----
Ab-55-55-55-55------5---5---33-3-x-55-5---33-3-x-55-5---33-3-x-55-5---333/5----
Eb-33-33-33-33------3-3-3-0-11-1-x-33-3-0-11-1-x-33-3-0-11-1-x-33-3-0-111/3----
                      .   . ..     ..   . ..     ..   . ..     ..   .

verses 1&2: (guitars 1 and 2) 
eb-----------------------------------
Bb-----------------------------------
Gb--------------------------2--------
Db----5------3---x7-5555555-2--------
Ab-55-5---33-3-x----5555555-0--------
Eb-33-3-0-11-1-x----3333333----------
   ..   . ..   

pre-chorus: x3 (guitars 1 and 2)
eb------------------------------------
Bb------------------------------------
Gb-33--------2------------------------
Db-33-2-3-33-2------------------------
Ab-11-2-3-33-0------------------------
Eb----0-1-11--------------------------

chorus: 
eb-----------------------------------------------------------------------------
Bb-----------------------------------------------------------------------------
Gb-----------------------------------------------------------------------------
Db-55---3-33/5-55---3-33/5-55---3-33/5-55555555--------------------------------
Ab-55---3-33/5-55---3-33/5-55---3-33/5-55555555--------------------------------
Eb-33-0-1-11/3-33-0-1-11/3-33-0-1-11/3-33333333--------------------------------

verse 2

pre-chorus

chorus

interlude: x7
eb-----------------------------------------------------------------------------
Bb-----------------------------------------------------------------------------
Gb----------55-----------------------------------------------------------------
Db-55-xx-33-55-----------------------------------------------------------------
Ab-55-xx-33-33-----------------------------------------------------------------
Eb-33-xx-11----0---------------------------------------------------------------

verse 3: (guitars 1&2)
eb-----------------------------------------------------------------------------
Bb-----------------------------------------------------------------------------
Gb------------------------2----------------------------------------------------
Db-555---333-4-x7-5555555-2----------------------------------------------------
Ab-555---333-4----5555555-0----------------------------------------------------
Eb-333-0-111-2----3333333------------------------------------------------------

pre-chorus

chorus


interlude x4

outro: (guitar 1)
eb-----------------------------------------------------------------------------
Bb-----------------------------------------------------------------------------
Gb----------55------------55---------------------------------------------------
Db-55-xx-33-55---55-xx-33-55---55----------------------------------------------
Ab-55-xx-33-33---55-xx-33-33---55----------------------------------------------
Eb-33-xx-11----0-33-xx-11----0-33----------------------------------------------

outro: (guitar 2)
eb--------------------------------------
Bb--------------------------------------
Gb--------------------------------------
Db-55------------55------------55-------
Ab-55------------55------------55-------
Eb-33------------33------------33-------

thats it! have fun
comments
print report bad tab
8 comments total. Showing first comments.
-1 reply
chilipepper24 wrote on February 8 2005, 12:00 am

that sure doesnt sound right to me

-1 reply
feesk8ordie wrote on April 1 2005, 12:00 am

way too complicated for a song with two chords in it!!!

-1 reply
AshI_234 wrote on December 23 2005, 10:15 am

this song has 1 guitar

I want to post or [tab]
guest
You may want to rate the tab now too:
select rating
Please do not post tabs as comments. Select "correction" instead!