Oops, an error
Loading. Please wait.

Geek Stink Breath Tab

version 4
version 4

Interactive

Video

  • High quality, easy to follow video lesson.
1,137 views 3 this week
5 commentsread comments
1 2 3 4 5
x 3
add to favorites
launch autoscroll
font size
0
reset
how to read this tab
guitar tuner
×
Best way to learn
"Geek Stink Breath"
Autoscroll
slow
fast
+/-
esc
set tempo
stop
Tuning
D# G# C# F# A# D#
Geek Stink Breath
Green Day
Insomniac 1995

Tuning: 1/2 step down (sounds a semitone lower than written here)

 ->Intro
D#|-----------------|
A#|-----------------|
F#|-----------------| 4x
C#|-4-4-------9-9---|
G#|-4-4-xx0-0-9-9-0-|
D#|-2-2-xx0-0-7-7-0-|

 ->Verse 1 (part 1)
D#|---------------------------------
A#|---------------------------------
F#|---------------------------------
C#|-666-444-666-444-666-444-666-444-
G#|-666-444-666-444-666-444-666-444-
D#|-444x222x444x222x444x222x444x222-
    .  ..  ..  ..  ..  ..  ..  ..

 ->Verse 1 (part 2)
D#|---------------------------------
A#|---------------------------------
F#|---------------------------------
C#|-666-444-666-444-666-444-666-444- 
G#|-666-444-666-444-666-444-666-444-
D#|-444x222x444x222x444x222x444x222-
   ..  ..  ..  ..  ..  ..  ..  ..

 ->Verse 1 (part 3)
D#|--------------------------------|
A#|--------------------------------|
F#|--------------------------------|
C#|-666-444-666-444-666-444-666666-|
G#|-666-444-666-444-666-444-666666-|
D#|-444x222x444x222x444x222-444444-|
   ..  ..  ..  ..  ..  ..

 ->Chorus
D#|--------|
A#|--------|
F#|-33-----|
C#|-33-333-| 4x
G#|-11-333-|
D#|---x111-|

 ->Verse 2 (part 1)
D#|--------------------------------
A#|--------------------------------
F#|--------------------------------
C#|-660-444-660-444-660-444-666666-
G#|-660-444-660-444-660-444-666666-
D#|-440-222-440-222-440-222-444444-

 ->Verse 1 (part 2)
D#|---------------------------------
A#|---------------------------------
F#|---------------------------------
C#|-666-444-666-444-666-444-666-444- 
G#|-666-444-666-444-666-444-666-444-
D#|-444x222x444x222x444x222x444x222-
   ..  ..  ..  ..  ..  ..  ..  ..
->Verse 1 (part 3)
--------------------------------
--------------------------------
--------------------------------
-666-444-666-444-666-444-666666- 
-666-444-666-444-666-444-666666-
-444x222x444x222x444x222-444444-
   ..  ..  ..  ..  ..  ..

 ->Chorus
D#|--------|
A#|--------|
F#|-33-----|
C#|-33-333-| 4x
G#|-11-333-|
D#|---x111-|

 ->Verse 2 (part 1)
D#|--------------------------------
A#|--------------------------------
F#|--------------------------------
C#|-660-444-660-444-660-444-666666-
G#|-660-444-660-444-660-444-666666-
D#|-440-222-440-222-440-222-444444-

 ->Interlude
D#|-----------------|
A#|-----------------|
F#|-----------------| 8x
C#|-4-4-------9-9---|
G#|-4-4-xx0-0-9-9-0-|
D#|-2-2-xx0-0-7-7-0-|

 ->Verse 2 (part 2)
D#|--------------------------------
A#|--------------------------------
F#|--------------------------------
C#|-660-444-660-444-660-444-660-444-
G#|-660-444-660-444-660-444-660-444-
D#|-440-222-440-222-440-222-440-222-

 ->Verse 2 (part 1)
D#|--------------------------------
A#|--------------------------------
F#|--------------------------------
C#|-660-444-660-444-660-444-666666-
G#|-660-444-660-444-660-444-666666-
D#|-440-222-440-222-440-222-444444-

 ->Chorus
D#|--------|
A#|--------|
F#|-33-----|
C#|-33-333-| 4x
G#|-11-333-|
D#|---x111-|

 ->Verse 2 (part 1)
D#|--------------------------------
A#|--------------------------------
F#|--------------------------------
C#|-660-444-660-444-660-444-666666-
G#|-660-444-660-444-660-444-666666-
D#|-440-222-440-222-440-222-444444-

 ->Outro (last 3 times "geek...stink...breath")
D#|-----------------|           |-----|
A#|-----------------|   |-----|
F#|-----------------| 6x        |-----|
C#|-4-4-------9-9---|   |-4-4-|
G#|-4-4-xx0-0-9-9-0-|   |-4-4-|
D#|-2-2-xx0-0-7-7-0-|   |-2-2-|

So its like this:

Intro                           4x
Verse 1 (part 1)                1x
Verse 1 (part 2)                1x
Verse 1 (part 3)                1x
Chorus                  4x
Verse 2 (part 1)                1x
Verse 1 (part 2)                1x
Verse 1 (part 3)                1x
Chorus                  4x
Verse 2 (part 1)                1x
Interlude (=intro)      8x
Verse 2 (part 2)                1x
Verse 2 (part 1)                1x
Chorus                  4x
Verse 2 (part 1)                1x
Outro (=intro)          7x

Have fun!!!
emieljanssen@hotmail.com.
Suggest correction
Give kudos to tab author, rate the tab!
1 2 3 4 5
comments
print report bad tab
5 comments total. Showing first comments.
0 reply
*'-'* 530 Oct 06, 2005 02:03 PM

Your intro is completely wrong

0 reply
AshI_234 70 Dec 23, 2005 05:19 AM

the intro is rite!

0 reply
brisuperfly 10 Feb 24, 2010 12:56 PM

tuned down half step

guest
You may want to rate the tab now too:
select rating
Wanna post a correction for this tab? Suggest correction