Oops, an error
Loading. Please wait.

Geek Stink Breath Tab

version 6
version 6
36,691 views 39 this week
3 commentsread comments
1 2 3 4 5
x 11
add to favorites
launch autoscroll
font size
0
reset
how to read this tab
guitar tuner
Autoscroll
slow
fast
+/-
esc
set tempo
stop
Help us to improve Ultimate-Guitar.com Take our survey!
×
Author
Difficulty
novice
Band:GREEN DAY
Song:GEEK STINK BREATH
Album:INSOMNIAC
Tuning: eb-Bb-Gb-Db-Ab-Eb
Legend: * = mute

[Intro]
eb|---------------------------------|
Bb|---------------------------------|
Gb|---------------------------------|
Db|--5-5--------10--10-------(x4)---|
Ab|--5-5---8-8--10--10--------------|
Eb|--3-3-0-8-8--8---8---0-----------|

[Verse]
eb|-----------------------|------------------------|
Bb|-----------------------|------------------------|
Gb|-------------------(x3)|------------------------|
Db|--------5---------3----|--------5---3-3-3-3-----|
Ab|--5-5-5-5---3-3-3-3----|--5-5-5-5---3-3-3-3-----|
Eb|--3-3-3-3-0-1-1-1-1----|--3-3-3-3---1-1-1-1-----|   
    * * *     * * *         * * * *
eb|---------------------------------|-------------------|
Bb|---------------------------------|-------------------|
Gb|---------------------------------|-------------------|
Db|--------5---------3-------(x4)---|-5-5-5-5-5-5-5-----| 
Ab|--5-5-5-5---3-3-3-3--------------|-5-5-5-5-5-5-5-----|
Eb|--3-3-3-3-0-1-1-1-1--------------|-3-3-3-3-3-3-3-----|
    * * *      * * * 

[Coro:]
eb|--------------------------|----------------------|-----------------|
Bb|--------------------------|----------------------|-----------------| 
Gb|-3-3-3--------------------|----------------------|-----------------|
Db|-3-3-3---3-3-3-3---(x4)---|-5-5-5---3-3-3-3-(x3)-|-5-5-5-5-5-5-5---|
Ab|-1-1-1-0-3-3-3-3----------|-5-5-5---3-3-3-3------|-5-5-5-5-5-5-5---|
Eb|---------1-1-1-1----------|-3-3-3-0-1-1-1-1------|-3-3-3-3-3-3-3---|

[Verse]
eb|-----------------------|------------------------|
Bb|-----------------------|------------------------|
Gb|-------------------(x3)|------------------------|
Db|--------5---------3----|--------5---3-3-3-3-----|
Ab|--5-5-5-5---3-3-3-3----|--5-5-5-5---3-3-3-3-----|
Eb|--3-3-3-3-0-1-1-1-1----|--3-3-3-3---1-1-1-1-----|   
    * * *     * * *         * * * *
eb|---------------------------------|-------------------|
Bb|---------------------------------|-------------------|
Gb|---------------------------------|-------------------|
Db|--------5---------3-------(x4)---|-5-5-5-5-5-5-5-----| 
Ab|--5-5-5-5---3-3-3-3--------------|-5-5-5-5-5-5-5-----|
Eb|--3-3-3-3-0-1-1-1-1--------------|-3-3-3-3-3-3-3-----|
    * * *      * * * 

[Coro:]
eb|--------------------------|----------------------|-----------------|
Bb|--------------------------|----------------------|-----------------| 
Gb|-3-3-3--------------------|----------------------|-----------------|
Db|-3-3-3---3-3-3-3---(x4)---|-5-5-5---3-3-3-3-(x3)-|-5-5-5-5-5-5-5---|
Ab|-1-1-1-0-3-3-3-3----------|-5-5-5---3-3-3-3------|-5-5-5-5-5-5-5---|
Eb|---------1-1-1-1----------|-3-3-3-0-1-1-1-1------|-3-3-3-3-3-3-3---|

[Bridge:]    (Part I)               (PartII)              (Part III)
eb|---------------------------|-----------------------|-----------------|
Bb|---------------------------|-----------------------|-----------------|
Gb|---------------------------|-----------------(x7)--|-----------------|
Db|--5-5--------10-10---------|-5-5-5---3-3-3-3-------|--5-5-5-5-5-5-5--|
Ab|--5-5---8-8--10-10---------|-5-5-5---3-3-3-3-------|--5-5-5-5-5-5-5--|
Eb|--3-3-0-8-8--8--8--0-------|-3-3-3---1-1-1-1-------|--3-3-3-3-3-3-3--|

[Coro:]
eb|--------------------------|----------------------|-----------------|
Bb|--------------------------|----------------------|-----------------| 
Gb|-3-3-3--------------------|----------------------|-----------------|
Db|-3-3-3---3-3-3-3---(x4)---|-5-5-5---3-3-3-3-(x3)-|-5-5-5-5-5-5-5---|
Ab|-1-1-1-0-3-3-3-3----------|-5-5-5---3-3-3-3------|-5-5-5-5-5-5-5---|
Eb|---------1-1-1-1----------|-3-3-3-0-1-1-1-1------|-3-3-3-3-3-3-3---|

[End:]
eb|---------------------------------|-------|
Bb|---------------------------------|-------|
Gb|---------------------------------|-------|
Db|--5-5--------10--10-------(x6)---|--5-5--|
Ab|--5-5---8-8--10--10--------------|--5-5--|
Eb|--3-3-0-8-8--8---8---0-----------|--3-3--|

That's all!

Order:
Intro           x1
Verse           x1
Coro            x1
Verse           x1
Coro            x1
Bridge(part I)  x4
Bridge(part II) x7
Bridge(part III)x1
Coro            x1
End             x1

LYRICS:

                                          Intro X 1

I'm on a mission
I made my decision
To lead a path of self destruction              Verse
A slow progression
Killing my complexion
And it's rotting out my teeth

I'm on a roll
No self control
I'm blowing off steam with methamphetamine      Coro
Don't know what I want
That's all that I've got
And I'm picking scabs off my face

Every hour my blood is turning sour
And my pulse is beating out of time             Verse
I found a treasure
filled with sick pleasure
And it sits on a thick white line

I'm on a roll
No self control
I'm blowing off steam with methamphetamine      Coro
Don't know what I want
That's all that I've got
And I'm picking scabs off my face


Bridge (part I)  X 4


I'm on a mission
I've got no decision
Like a cripple running the rat race             Bridge(part II) X 7
Wish in one hand shit in the other
And see which one gets filled first


Bridge (part III) X 1


I'm on a roll
No self control
I'm blowing off steam with methamphetamine      Coro
Don't know what I want
That's all that I've got
And I'm picking scabs off my face 
 
                                                End  X 1



************************************

| b  Bend

************************************
Suggest correction
comments
print report bad tab
3 comments total.
+2 reply
Exory 10 Dec 12, 2012 11:20 AM

Good tab, but I'm pretty sure the rhythm in the verse is like this:


eb|-----------------------|
Bb|-----------------------|
Gb|-----------------------|
Db|------5---------3------|
Ab|--5-5-5-5---3-3-3-3----|
Eb|--3-3-3-3-0-1-1-1-1----|
* * * * * *

0 reply
RockChick4ever 10 Jan 12, 2014 08:43 PM

Very easy tab :) Great song too!

0 reply
zo704luc 33 Nov 29, 2015 02:28 PM

Standart tuning on acoustic plays very similiar to original, very nice tab, deep drive at 130 bpm woah!

guest
You may want to rate the tab now too:
select rating
Wanna post a correction for this tab? Suggest correction