Oops, an error
Loading. Please wait.

Geek Stink Breath Tab

version 7
version 7

Interactive

Video

  • High quality, easy to follow video lesson.
49 views 9 this week
no commentswrite comment
1 2 3 4 5
3 more votes to show rating
add to favorites
launch autoscroll
font size
0
reset
how to read this tab
guitar tuner
backing track
0:00
0:00
×
Best way to learn
"Geek Stink Breath"
Autoscroll
slow
fast
+/-
esc
set tempo
stop
GEEK STINK BREATH
Tuning: eb-Bb-Gb-Db-Ab-Eb

(Intro)
eb|--------------------------------------------------------------------------------|
Bb|--------------------------------------------------------------------------------|
Gb|--------------------------------------------------------------------------------|
Db|--5-5-x------10--10--5-5-x------10--10--5-5-x------10--10--5-5-x------10--10----|
Ab|--5-5-x-8-8--10--10--5-5-x-8-8--10--10--5-5-x-8-8--10--10--5-5-x-8-8--10--10----|
Eb|--3-3-x-8-8--8---8---3-3-x-8-8---8---8--3-3-x-8-8---8---8--3-3-x-8-8---8---8----|

eb|----------------------------------------------------------------------------|
Bb|----------------------------------------------------------------------------|
Gb|----------------------------------------------------------------------------|
Db|------5--------3--------5--------3--------5--------3--------5----3-3-3-3----|
Ab|--5-5-5-5--3-3-3-3--5-5-5-5--3-3-3-3--5-5-5-5--3-3-3-3--5-5-5-5--3-3-3-3----|
Eb|--3-3-3-3--1-1-1-1--3-3-3-3--1-1-1-1--3-3-3-3--1-1-1-1--3-3-3-3--1-1-1-1----|

(Verse)
eb|----------------------------------------------------------------------------|
Bb|----------------------------------------------------------------------------|
Gb|----------------------------------------------------------------------------|
Db|------5--------3--------5--------3--------5--------3--------5--------3------|
Ab|--5-5-5-5--3-3-3-3--5-5-5-5--3-3-3-3--5-5-5-5--3-3-3-3--5-5-5-5--3-3-3-3----|
Eb|--3-3-3-3--1-1-1-1--3-3-3-3--1-1-1-1--3-3-3-3--1-1-1-1--3-3-3-3--1-1-1-1----|
   I’M ON A MISSION  I’VE MADE MY      TO LEAD A PATH OF
                     DECISION          SELF DESTRUCTION

eb|----------------------------------------------------------------------------|
Bb|----------------------------------------------------------------------------|
Gb|----------------------------------------------------------------------------|
Db|------5--------3--------5--------3--------5--------3-----5-5-5-5--5-5-5-5---|
Ab|--5-5-5-5--3-3-3-3--5-5-5-5--3-3-3-3--5-5-5-5--3-3-3-3---5-5-5-5--5-5-5-5---|
Eb|--3-3-3-3--1-1-1-1--3-3-3-3--1-1-1-1--3-3-3-3--1-1-1-1---3-3-3-3--3-3-3-3---|
   A SLOW            KILLING MY        AND ITS ROTTING
   PROGRESSION       COMPLEXION       OUT MY TEETH

(Chorus)
eb|-----------------------------------------------------------------------|
Bb|-----------------------------------------------------------------------|
Gb|--3-3------------3-3-------------3-3-------------3-3-------------------|
Db|--3-3---3--3-3---3-3----3--3-3---3-3----3--3-3---3-3----3--3-3---------|
Ab|--1-1---3--3-3---1-1----3--3-3---1-1----3--3-3---1-1----3--3-3---------|
Eb|--------1--1-1----------1--1-1----------1--1-1----------1--1-1---------|
    I‘M ON A ROLL   NO SELF CONTROL I’M BLOWING OFF  WITH METHAMPHETAMINE
                                   STEAM

eb|---------------------------------------------------------------------|
Bb|---------------------------------------------------------------------|
Gb|---------------------------------------------------------------------|
Db|--5-5--3--3-3-----5-5--3--3-3-----5-5--3--3-3-------5-5-5-5-5-5-5-5--|
Ab|--5-5--3--3-3-----5-5--3--3-3-----5-5--3--3-3-------5-5-5-5-5-5-5-5--|
Eb|--3-3--1--1-1-----3-3--1--1-1-----3-3--1--1-1-------3-3-3-3-3-3-3-3--|
    DONT KNOW       THATS ALL THAT  AND I’M PICKING   FACE
    WHAT I WANT     I’VE GOT        SCABS OFF MY 

eb|-----------------------------------------|
Bb|-----------------------------------------|
Gb|-----------------------------------------|
Db|------5--------3--------5--------3-------|
Ab|--5-5-5-5--3-3-3-3--5-5-5-5--3-3-3-3-----|
Eb|--3-3-3-3--1-1-1-1--3-3-3-3--1-1-1-1-----|

(Verse)
eb|----------------------------------------------------------------------------|
Bb|----------------------------------------------------------------------------|
Gb|----------------------------------------------------------------------------|
Db|------5--------3--------5--------3--------5--------3--------5--------3------|
Ab|--5-5-5-5--3-3-3-3--5-5-5-5--3-3-3-3--5-5-5-5--3-3-3-3--5-5-5-5--3-3-3-3----|
Eb|--3-3-3-3--1-1-1-1--3-3-3-3--1-1-1-1--3-3-3-3--1-1-1-1--3-3-3-3--1-1-1-1----|
    EVERY HOUR        MY BLOOD IS       AND MY PULSE IS
                      TURNING SOUR      BEATING OUT OF TIME

eb|----------------------------------------------------------------------------|
Bb|----------------------------------------------------------------------------|
Gb|----------------------------------------------------------------------------|
Db|------5--------3--------5--------3--------5--------3-----5-5-5-5--5-5-5-5---|
Ab|--5-5-5-5--3-3-3-3--5-5-5-5--3-3-3-3--5-5-5-5--3-3-3-3---5-5-5-5--5-5-5-5---|
Eb|--3-3-3-3--1-1-1-1--3-3-3-3--1-1-1-1--3-3-3-3--1-1-1-1---3-3-3-3--3-3-3-3---|
    I FOUND A         FILLED WITH SICK  AND IT SITS ON A
    TREASURE          PLEASURE          THIN WHITE LINE

(Chorus)
eb|------------------------------------------------------------------------|
Bb|------------------------------------------------------------------------|
Gb|--3-3------------3-3-------------3-3-------------3-3--------------------|
Db|--3-3---3--3-3---3-3----3--3-3---3-3----3--3-3---3-3----3--3-3----------|
Ab|--1-1---3--3-3---1-1----3--3-3---1-1----3--3-3---1-1----3--3-3----------|
Eb|--------1--1-1----------1--1-1----------1--1-1----------1--1-1----------|
    I‘M ON A ROLL   NO SELF CONTROL I’M BLOWING OFF  WITH METHAMPHETAMINE
                                   STEAM

eb|---------------------------------------------------------------------|
Bb|---------------------------------------------------------------------|
Gb|---------------------------------------------------------------------|
Db|--5-5--3--3-3-----5-5--3--3-3-----5-5--3--3-3-------5-5-5-5-5-5-5-5--|
Ab|--5-5--3--3-3-----5-5--3--3-3-----5-5--3--3-3-------5-5-5-5-5-5-5-5--|
Eb|--3-3--1--1-1-----3-3--1--1-1-----3-3--1--1-1-------3-3-3-3-3-3-3-3--|
 WELL DONT KNOW     THATS ALL THAT  AND I’M PICKING   FACE
    WHAT I WANT     I’VE GOT        SCABS OFF MY 

(Interlude)
eb|--------------------------------------------------------------------------------|
Bb|--------------------------------------------------------------------------------|
Gb|--------------------------------------------------------------------------------|
Db|--5-5-x------10--10--5-5-x------10--10--5-5-x------10--10--5-5-x------10--10----|
Ab|--5-5-x-8-8--10--10--5-5-x-8-8--10--10--5-5-x-8-8--10--10--5-5-x-8-8--10--10----|
Eb|--3-3-x-8-8--8---8---3-3-x-8-8---8---8--3-3-x-8-8---8---8--3-3-x-8-8---8---8----|

eb|--------------------------------------------------------------------------------|
Bb|--------------------------------------------------------------------------------|
Gb|--------------------------------------------------------------------------------|
Db|--5-5-x------10--10--5-5-x------10--10--5-5-x------10--10--5-5-x------10--10----|
Ab|--5-5-x-8-8--10--10--5-5-x-8-8--10--10--5-5-x-8-8--10--10--5-5-x-8-8--10--10----|
Eb|--3-3-x-8-8--8---8---3-3-x-8-8---8---8--3-3-x-8-8---8---8--3-3-x-8-8---8---8----|

(Verse)
eb|--------------------------------------------------------------------------------|
Bb|--------------------------------------------------------------------------------|
Gb|--------------------------------------------------------------------------------|
Db|--5-5-5-----3-3-3----5-5-5-----3-3-3----5-5-5-----3-3-3----5-5-5-----3-3-3------|
Ab|--5-5-5-----3-3-3----5-5-5-----3-3-3----5-5-5-----3-3-3----5-5-5-----3-3-3------|
Eb|--3-3-3--0--1-1-1-0--3-3-3--0--1-1-1-0--3-3-3--0--1-1-1-0--3-3-3--0--1-1-1-0----|
    I’M ON A MISSION   I’VE GOT NO        LIKE A CRIPPLE 
                       DECISION           RUNNING THE RAT RACE

eb|--------------------------------------------------------------------------------|
Bb|--------------------------------------------------------------------------------|
Gb|--------------------------------------------------------------------------------|
Db|--5-5-5-----3-3-3----5-5-5-----3-3-3----5-5-5-----3-3-3----5-5-5-----3-3-3------|
Ab|--5-5-5-----3-3-3----5-5-5-----3-3-3----5-5-5-----3-3-3----5-5-5-----3-3-3------|
Eb|--3-3-3--0--1-1-1-0--3-3-3--0--1-1-1-0--3-3-3--0--1-1-1-0--3-3-3--0--1-1-1-0----|
    WISH IN ONE HAND   SHIT IN THE OTHER  AND SEE WHICH ONE
                                          GETS FILLED FIRST
                                        
(Chorus)
eb|-----------------------------------------------------------------------|
Bb|-----------------------------------------------------------------------|
Gb|--3-3------------3-3-------------3-3-------------3-3-------------------|
Db|--3-3---3--3-3---3-3----3--3-3---3-3----3--3-3---3-3----3--3-3---------|
Ab|--1-1---3--3-3---1-1----3--3-3---1-1----3--3-3---1-1----3--3-3---------|
Eb|--------1--1-1----------1--1-1----------1--1-1----------1--1-1---------|
    I‘M ON A ROLL   NO SELF CONTROL I’M BLOWING OFF  WITH METHAMPHETAMINE
                                   STEAM

eb|---------------------------------------------------------------------|
Bb|---------------------------------------------------------------------|
Gb|---------------------------------------------------------------------|
Db|--5-5--3--3-3-----5-5--3--3-3-----5-5--3--3-3-------5-5-5-5-5-5-5-5--|
Ab|--5-5--3--3-3-----5-5--3--3-3-----5-5--3--3-3-------5-5-5-5-5-5-5-5--|
Eb|--3-3--1--1-1-----3-3--1--1-1-----3-3--1--1-1-------3-3-3-3-3-3-3-3--|
 WELL DONT KNOW     THATS ALL THAT  AND I’M PICKING   FACE
    WHAT I WANT     I’VE GOT        SCABS OFF MY

(Outro)
eb|--------------------------------------------------------------------------------|
Bb|--------------------------------------------------------------------------------|
Gb|--------------------------------------------------------------------------------|
Db|--5-5-x------10--10--5-5-x------10--10--5-5-x------10--10--5-5-x------10--10----|
Ab|--5-5-x-8-8--10--10--5-5-x-8-8--10--10--5-5-x-8-8--10--10--5-5-x-8-8--10--10----|
Eb|--3-3-x-8-8--8---8---3-3-x-8-8---8---8--3-3-x-8-8---8---8--3-3-x-8-8---8---8----|

eb|-----------------------------------------------------|
Bb|-----------------------------------------------------|
Gb|-----------------------------------------------------|
Db|--5-5-x------10--10--5-5-x------10--10-----5-5-------|
Ab|--5-5-x-8-8--10--10--5-5-x-8-8--10--10-----5-5-------|
Eb|--3-3-x-8-8--8---8---3-3-x-8-8---8---8-----3-3-------|
Suggest correction
Give kudos to tab author, rate the tab!
1 2 3 4 5
comments
print report bad tab
guest
You may want to rate the tab now too:
select rating
Wanna post a correction for this tab? Suggest correction